  0
SECTION
  2
HEADER
  9
$ACADVER
  1
AC1015
  9
$ACADMAINTVER
 70
     6
  9
$DWGCODEPAGE
  3
ANSI_1254
  9
$INSBASE
 10
0.0
 20
0.0
 30
0.0
  9
$EXTMIN
 10
0.0
 20
0.0
 30
0.0
  9
$EXTMAX
 10
279.4
 20
215.9
 30
0.0
  9
$LIMMIN
 10
0.0
 20
0.0
  9
$LIMMAX
 10
279.4
 20
215.9
  9
$ORTHOMODE
 70
     0
  9
$REGENMODE
 70
     1
  9
$FILLMODE
 70
     1
  9
$QTEXTMODE
 70
     0
  9
$MIRRTEXT
 70
     1
  9
$LTSCALE
 40
1.0
  9
$ATTMODE
 70
     1
  9
$TEXTSIZE
 40
3.5
  9
$TRACEWID
 40
1.0
  9
$TEXTSTYLE
  7
Standard
  9
$CLAYER
  8
0
  9
$CELTYPE
  6
ByLayer
  9
$CECOLOR
 62
   256
  9
$CELTSCALE
 40
1.0
  9
$DISPSILH
 70
     0
  9
$DIMSCALE
 40
1.0
  9
$DIMASZ
 40
3.5
  9
$DIMEXO
 40
1.0
  9
$DIMDLI
 40
3.75
  9
$DIMRND
 40
0.0
  9
$DIMDLE
 40
0.0
  9
$DIMEXE
 40
1.0
  9
$DIMTP
 40
0.0
  9
$DIMTM
 40
0.0
  9
$DIMTXT
 40
3.5
  9
$DIMCEN
 40
2.5
  9
$DIMTSZ
 40
0.0
  9
$DIMTOL
 70
     0
  9
$DIMLIM
 70
     0
  9
$DIMTIH
 70
     1
  9
$DIMTOH
 70
     1
  9
$DIMSE1
 70
     0
  9
$DIMSE2
 70
     0
  9
$DIMTAD
 70
     1
  9
$DIMZIN
 70
     0
  9
$DIMBLK
  1

  9
$DIMASO
 70
     1
  9
$DIMSHO
 70
     1
  9
$DIMPOST
  1

  9
$DIMAPOST
  1

  9
$DIMALT
 70
     0
  9
$DIMALTD
 70
     3
  9
$DIMALTF
 40
0.0393700787
  9
$DIMLFAC
 40
1.0
  9
$DIMTOFL
 70
     1
  9
$DIMTVP
 40
0.0
  9
$DIMTIX
 70
     0
  9
$DIMSOXD
 70
     0
  9
$DIMSAH
 70
     0
  9
$DIMBLK1
  1

  9
$DIMBLK2
  1

  9
$DIMSTYLE
  2
ISO-25
  9
$DIMCLRD
 70
     0
  9
$DIMCLRE
 70
     0
  9
$DIMCLRT
 70
     0
  9
$DIMTFAC
 40
1.0
  9
$DIMGAP
 40
1.524
  9
$DIMJUST
 70
     0
  9
$DIMSD1
 70
     0
  9
$DIMSD2
 70
     0
  9
$DIMTOLJ
 70
     0
  9
$DIMTZIN
 70
     0
  9
$DIMALTZ
 70
     0
  9
$DIMALTTZ
 70
     0
  9
$DIMUPT
 70
     0
  9
$DIMDEC
 70
     2
  9
$DIMTDEC
 70
     2
  9
$DIMALTU
 70
     2
  9
$DIMALTTD
 70
     3
  9
$DIMTXSTY
  7
Standard
  9
$DIMAUNIT
 70
     0
  9
$DIMADEC
 70
     2
  9
$DIMALTRND
 40
0.0
  9
$DIMAZIN
 70
     0
  9
$DIMDSEP
 70
    44
  9
$DIMATFIT
 70
     3
  9
$DIMFRAC
 70
     0
  9
$DIMLDRBLK
  1

  9
$DIMLUNIT
 70
     2
  9
$DIMLWD
 70
    -2
  9
$DIMLWE
 70
    -2
  9
$DIMTMOVE
 70
     0
  9
$LUNITS
 70
     2
  9
$LUPREC
 70
     2
  9
$SKETCHINC
 40
1.0
  9
$FILLETRAD
 40
10.0
  9
$AUNITS
 70
     0
  9
$AUPREC
 70
     2
  9
$MENU
  1
.
  9
$ELEVATION
 40
0.0
  9
$PELEVATION
 40
0.0
  9
$THICKNESS
 40
0.0
  9
$LIMCHECK
 70
     0
  9
$CHAMFERA
 40
0.0
  9
$CHAMFERB
 40
0.0
  9
$CHAMFERC
 40
0.0
  9
$CHAMFERD
 40
0.0
  9
$SKPOLY
 70
     0
  9
$TDCREATE
 40
2460616.666873334
  9
$TDUCREATE
 40
2460616.541873334
  9
$TDUPDATE
 40
2460616.666873599
  9
$TDUUPDATE
 40
2460616.541873599
  9
$TDINDWG
 40
0.0000000116
  9
$TDUSRTIMER
 40
0.0000000116
  9
$USRTIMER
 70
     1
  9
$ANGBASE
 50
0.0
  9
$ANGDIR
 70
     0
  9
$PDMODE
 70
     0
  9
$PDSIZE
 40
-1.0
  9
$PLINEWID
 40
0.0
  9
$SPLFRAME
 70
     0
  9
$SPLINETYPE
 70
     6
  9
$SPLINESEGS
 70
     8
  9
$HANDSEED
  5
10F
  9
$SURFTAB1
 70
     6
  9
$SURFTAB2
 70
     6
  9
$SURFTYPE
 70
     6
  9
$SURFU
 70
     6
  9
$SURFV
 70
     6
  9
$UCSBASE
  2

  9
$UCSNAME
  2

  9
$UCSORG
 10
0.0
 20
0.0
 30
0.0
  9
$UCSXDIR
 10
1.0
 20
0.0
 30
0.0
  9
$UCSYDIR
 10
0.0
 20
1.0
 30
0.0
  9
$UCSORTHOREF
  2

  9
$UCSORTHOVIEW
 70
     0
  9
$UCSORGTOP
 10
0.0
 20
0.0
 30
0.0
  9
$UCSORGBOTTOM
 10
0.0
 20
0.0
 30
0.0
  9
$UCSORGLEFT
 10
0.0
 20
0.0
 30
0.0
  9
$UCSORGRIGHT
 10
0.0
 20
0.0
 30
0.0
  9
$UCSORGFRONT
 10
0.0
 20
0.0
 30
0.0
  9
$UCSORGBACK
 10
0.0
 20
0.0
 30
0.0
  9
$PUCSBASE
  2

  9
$PUCSNAME
  2

  9
$PUCSORG
 10
0.0
 20
0.0
 30
0.0
  9
$PUCSXDIR
 10
1.0
 20
0.0
 30
0.0
  9
$PUCSYDIR
 10
0.0
 20
1.0
 30
0.0
  9
$PUCSORTHOREF
  2

  9
$PUCSORTHOVIEW
 70
     0
  9
$PUCSORGTOP
 10
0.0
 20
0.0
 30
0.0
  9
$PUCSORGBOTTOM
 10
0.0
 20
0.0
 30
0.0
  9
$PUCSORGLEFT
 10
0.0
 20
0.0
 30
0.0
  9
$PUCSORGRIGHT
 10
0.0
 20
0.0
 30
0.0
  9
$PUCSORGFRONT
 10
0.0
 20
0.0
 30
0.0
  9
$PUCSORGBACK
 10
0.0
 20
0.0
 30
0.0
  9
$USERI1
 70
     0
  9
$USERI2
 70
     0
  9
$USERI3
 70
     0
  9
$USERI4
 70
     0
  9
$USERI5
 70
     0
  9
$USERR1
 40
0.0
  9
$USERR2
 40
0.0
  9
$USERR3
 40
0.0
  9
$USERR4
 40
0.0
  9
$USERR5
 40
0.0
  9
$WORLDVIEW
 70
     1
  9
$SHADEDGE
 70
     3
  9
$SHADEDIF
 70
    70
  9
$TILEMODE
 70
     1
  9
$MAXACTVP
 70
    64
  9
$PINSBASE
 10
0.0
 20
0.0
 30
0.0
  9
$PLIMCHECK
 70
     0
  9
$PEXTMIN
 10
1.0000000000E+20
 20
1.0000000000E+20
 30
1.0000000000E+20
  9
$PEXTMAX
 10
-1.0000000000E+20
 20
-1.0000000000E+20
 30
-1.0000000000E+20
  9
$PLIMMIN
 10
0.0
 20
0.0
  9
$PLIMMAX
 10
420.0
 20
297.0
  9
$UNITMODE
 70
     0
  9
$VISRETAIN
 70
     1
  9
$PLINEGEN
 70
     0
  9
$PSLTSCALE
 70
     1
  9
$TREEDEPTH
 70
  3020
  9
$CMLSTYLE
  2
Standard
  9
$CMLJUST
 70
     0
  9
$CMLSCALE
 40
20.0
  9
$PROXYGRAPHICS
 70
     1
  9
$MEASUREMENT
 70
     1
  9
$CELWEIGHT
370
    -1
  9
$ENDCAPS
280
     0
  9
$JOINSTYLE
280
     0
  9
$LWDISPLAY
290
     1
  9
$INSUNITS
 70
     4
  9
$HYPERLINKBASE
  1

  9
$STYLESHEET
  1

  9
$XEDIT
290
     1
  9
$CEPSNTYPE
380
     0
  9
$PSTYLEMODE
290
     1
  9
$FINGERPRINTGUID
  2
{2d394801-a662-4a81-b98d-cf2d74fd0e70}
  9
$VERSIONGUID
  2
{FAEB1C32-E019-11D5-929B-00C0DF256EC4}
  9
$EXTNAMES
290
     1
  9
$PSVPSCALE
 40
0.0
  9
$OLESTARTUP
290
     0
  0
ENDSEC
  0
SECTION
  2
CLASSES
  0
CLASS
  1
ACDBDICTIONARYWDFLT
  2
AcDbDictionaryWithDefault
  3
ObjectDBX Classes
 90
        0
280
     0
281
     0
  0
CLASS
  1
VISUALSTYLE
  2
AcDbVisualStyle
  3
ObjectDBX Classes
 90
     4095
280
     0
281
     0
  0
CLASS
  1
MATERIAL
  2
AcDbMaterial
  3
ObjectDBX Classes
 90
     1153
280
     0
281
     0
  0
CLASS
  1
SCALE
  2
AcDbScale
  3
ObjectDBX Classes
 90
     1153
280
     0
281
     0
  0
CLASS
  1
TABLESTYLE
  2
AcDbTableStyle
  3
ObjectDBX Classes
 90
     4095
280
     0
281
     0
  0
CLASS
  1
MLEADERSTYLE
  2
AcDbMLeaderStyle
  3
ACDB_MLEADERSTYLE_CLASS
 90
     4095
280
     0
281
     0
  0
CLASS
  1
SUN
  2
AcDbSun
  3
SCENEOE
 90
     1153
280
     0
281
     0
  0
CLASS
  1
ACDBPLACEHOLDER
  2
AcDbPlaceHolder
  3
ObjectDBX Classes
 90
        0
280
     0
281
     0
  0
CLASS
  1
LAYOUT
  2
AcDbLayout
  3
ObjectDBX Classes
 90
        0
280
     0
281
     0
  0
ENDSEC
  0
SECTION
  2
TABLES
  0
TABLE
  2
VPORT
  5
8
330
0
100
AcDbSymbolTable
 70
     1
  0
VPORT
  5
29
330
8
100
AcDbSymbolTableRecord
100
AcDbViewportTableRecord
  2
*Active
 70
     0
 10
0.0
 20
0.0
 11
1.0
 21
1.0
 12
139.7
 22
107.95
 13
0.0
 23
0.0
 14
10.0
 24
10.0
 15
10.0
 25
10.0
 16
0.0
 26
0.0
 36
1.0
 17
0.0
 27
0.0
 37
0.0
 40
215.9
 41
1.2941176471
 42
50.0
 43
0.0
 44
0.0
 50
0.0
 51
0.0
 71
     0
 72
  2000
 73
     1
 74
     3
 75
     0
 76
     0
 77
     0
 78
     0
281
     0
 65
     1
110
0.0
120
0.0
130
0.0
111
1.0
121
0.0
131
0.0
112
0.0
122
1.0
132
0.0
 79
     0
146
0.0
  0
ENDTAB
  0
TABLE
  2
LTYPE
  5
5
330
0
100
AcDbSymbolTable
 70
     6
  0
LTYPE
  5
14
330
5
100
AcDbSymbolTableRecord
100
AcDbLinetypeTableRecord
  2
ByBlock
 70
     0
  3

 72
    65
 73
     0
 40
0.0
  0
LTYPE
  5
15
330
5
100
AcDbSymbolTableRecord
100
AcDbLinetypeTableRecord
  2
ByLayer
 70
     0
  3

 72
    65
 73
     0
 40
0.0
  0
LTYPE
  5
16
330
5
100
AcDbSymbolTableRecord
100
AcDbLinetypeTableRecord
  2
Continuous
 70
     0
  3
Solid line
 72
    65
 73
     0
 40
0.0
  0
LTYPE
  5
6E
330
5
100
AcDbSymbolTableRecord
100
AcDbLinetypeTableRecord
  2
HIDDEN
 70
     0
  3
Hidden __ __ __ __ __ __ __ __ __ __ __ __ __ __
 72
    65
 73
     2
 40
1.905
 49
1.27
 74
     0
 49
-0.635
 74
     0
  0
LTYPE
  5
6F
330
5
100
AcDbSymbolTableRecord
100
AcDbLinetypeTableRecord
  2
PHANTOM
 70
     0
  3
Phantom ______  __  __  ______  __  __  ______
 72
    65
 73
     6
 40
12.7
 49
6.35
 74
     0
 49
-1.27
 74
     0
 49
1.27
 74
     0
 49
-1.27
 74
     0
 49
1.27
 74
     0
 49
-1.27
 74
     0
  0
LTYPE
  5
70
330
5
100
AcDbSymbolTableRecord
100
AcDbLinetypeTableRecord
  2
CENTER
 70
     0
  3
Center ____ _ ____ _ ____ _ ____ _ ____ _ ____
 72
    65
 73
     4
 40
10.16
 49
6.35
 74
     0
 49
-1.27
 74
     0
 49
1.27
 74
     0
 49
-1.27
 74
     0
  0
LTYPE
  5
71
330
5
100
AcDbSymbolTableRecord
100
AcDbLinetypeTableRecord
  2
CENTERX2
 70
     0
  3
Center (2x) ________  __  ________  __  _____
 72
    65
 73
     4
 40
20.32
 49
12.7
 74
     0
 49
-2.54
 74
     0
 49
2.54
 74
     0
 49
-2.54
 74
     0
  0
LTYPE
  5
72
330
5
100
AcDbSymbolTableRecord
100
AcDbLinetypeTableRecord
  2
DOT2
 70
     0
  3
Dot (.5x) ........................................
 72
    65
 73
     2
 40
0.635
 49
0.0
 74
     0
 49
-0.635
 74
     0
  0
ENDTAB
  0
TABLE
  2
LAYER
  5
2
330
0
100
AcDbSymbolTable
 70
    17
  0
LAYER
  5
10
330
2
100
AcDbSymbolTableRecord
100
AcDbLayerTableRecord
  2
0
 70
     0
 62
     7
  6
Continuous
370
    -3
390
F
  0
LAYER
  5
73
330
2
100
AcDbSymbolTableRecord
100
AcDbLayerTableRecord
  2
FORMAT
 70
     0
 62
     7
  6
Continuous
370
    -3
390
F
  0
LAYER
  5
74
330
2
100
AcDbSymbolTableRecord
100
AcDbLayerTableRecord
  2
YARDIMCI_GEOMETRI
 70
     0
 62
    -6
  6
Continuous
290
     0
370
    -3
390
F
  0
LAYER
  5
75
330
2
100
AcDbSymbolTableRecord
100
AcDbLayerTableRecord
  2
SAYFA_CERCEVESI
 70
     0
 62
     7
  6
Continuous
370
    25
390
F
  0
LAYER
  5
76
330
2
100
AcDbSymbolTableRecord
100
AcDbLayerTableRecord
  2
ANTET
 70
     0
 62
     7
  6
Continuous
370
    -3
390
F
  0
LAYER
  5
77
330
2
100
AcDbSymbolTableRecord
100
AcDbLayerTableRecord
  2
OLCU
 70
     0
 62
   150
  6
Continuous
370
    -3
390
F
  0
LAYER
  5
78
330
2
100
AcDbSymbolTableRecord
100
AcDbLayerTableRecord
  2
METIN
 70
     0
 62
    96
  6
Continuous
370
    -3
390
F
  0
LAYER
  5
79
330
2
100
AcDbSymbolTableRecord
100
AcDbLayerTableRecord
  2
BALON
 70
     0
 62
     5
  6
Continuous
370
    -3
390
F
  0
LAYER
  5
7A
330
2
100
AcDbSymbolTableRecord
100
AcDbLayerTableRecord
  2
VURGU
 70
     0
 62
     7
  6
Continuous
370
    -3
390
F
  0
LAYER
  5
7B
330
2
100
AcDbSymbolTableRecord
100
AcDbLayerTableRecord
  2
SILIK
 70
     0
 62
     7
  6
Continuous
370
    -3
390
F
  0
LAYER
  5
7C
330
2
100
AcDbSymbolTableRecord
100
AcDbLayerTableRecord
  2
MODEL
 70
     0
 62
     7
  6
Continuous
370
    -3
390
F
  0
LAYER
  5
7D
330
2
100
AcDbSymbolTableRecord
100
AcDbLayerTableRecord
  2
DETAYLANDıRMA
 70
     0
 62
   190
  6
Continuous
370
    -3
390
F
  0
LAYER
  5
7E
330
2
100
AcDbSymbolTableRecord
100
AcDbLayerTableRecord
  2
TOLERANS
 70
     0
 62
   230
  6
Continuous
370
    -3
390
F
  0
LAYER
  5
7F
330
2
100
AcDbSymbolTableRecord
100
AcDbLayerTableRecord
  2
MERKEZ_CIZGILERI
 70
     0
 62
    30
  6
Continuous
370
    -3
390
F
  0
LAYER
  5
80
330
2
100
AcDbSymbolTableRecord
100
AcDbLayerTableRecord
  2
KESIT-DETAY_CIZGILERI
 70
     0
 62
     7
  6
Continuous
370
    -3
390
F
  0
LAYER
  5
81
330
2
100
AcDbSymbolTableRecord
100
AcDbLayerTableRecord
  2
\U+041E\U+0421\U+0415\U+0412\U+042B\U+0415
 70
     0
 62
     7
  6
Continuous
370
    -3
390
F
  0
LAYER
  5
82
330
2
100
AcDbSymbolTableRecord
100
AcDbLayerTableRecord
  2
\U+0412\U+041E\U+0414\U+042F\U+041D\U+042B\U+0415_\U+0417\U+041D\U+0410\U+041A\U+0418
 70
     0
 62
    11
  6
Continuous
370
    -3
390
F
  0
ENDTAB
  0
TABLE
  2
STYLE
  5
3
330
0
100
AcDbSymbolTable
 70
     1
  0
STYLE
  5
11
330
3
100
AcDbSymbolTableRecord
100
AcDbTextStyleTableRecord
  2
Standard
 70
     0
 40
0.0
 41
1.0
 50
0.0
 71
     0
 42
3.5
  3
txt
  4

  0
ENDTAB
  0
TABLE
  2
VIEW
  5
6
330
0
100
AcDbSymbolTable
 70
     0
  0
ENDTAB
  0
TABLE
  2
UCS
  5
7
330
0
100
AcDbSymbolTable
 70
     0
  0
ENDTAB
  0
TABLE
  2
APPID
  5
9
330
0
100
AcDbSymbolTable
 70
     1
  0
APPID
  5
12
330
9
100
AcDbSymbolTableRecord
100
AcDbRegAppTableRecord
  2
ACAD
 70
     0
  0
ENDTAB
  0
TABLE
  2
DIMSTYLE
  5
A
330
0
100
AcDbSymbolTable
 70
     1
100
AcDbDimStyleTable
  0
DIMSTYLE
105
27
330
A
100
AcDbSymbolTableRecord
100
AcDbDimStyleTableRecord
  2
ISO-25
 70
     0
 41
2.5
 42
0.625
 43
3.75
 44
1.25
 73
     0
 74
     0
 77
     1
 78
     8
140
2.5
141
2.5
143
0.0393700787
147
0.625
171
     3
172
     1
178
     0
271
     2
272
     2
274
     3
278
    44
283
     0
284
     8
340
11
  0
ENDTAB
  0
TABLE
  2
BLOCK_RECORD
  5
1
330
0
100
AcDbSymbolTable
 70
     4
  0
BLOCK_RECORD
  5
1F
330
1
100
AcDbSymbolTableRecord
100
AcDbBlockTableRecord
  2
*Model_Space
340
22
  0
BLOCK_RECORD
  5
1B
330
1
100
AcDbSymbolTableRecord
100
AcDbBlockTableRecord
  2
*Paper_Space
340
1E
  0
BLOCK_RECORD
  5
23
330
1
100
AcDbSymbolTableRecord
100
AcDbBlockTableRecord
  2
*Paper_Space0
340
26
  0
BLOCK_RECORD
  5
8C
330
1
100
AcDbSymbolTableRecord
100
AcDbBlockTableRecord
  2
SW_CENTERMARKSYMBOL_0
340
0
102
{BLKREFS
331
97
102
}
  0
BLOCK_RECORD
  5
DE
330
1
100
AcDbSymbolTableRecord
100
AcDbBlockTableRecord
  2
SW_CENTERMARKSYMBOL_1
340
0
102
{BLKREFS
331
E9
102
}
  0
BLOCK_RECORD
  5
EA
330
1
100
AcDbSymbolTableRecord
100
AcDbBlockTableRecord
  2
SW_CENTERMARKSYMBOL_2
340
0
102
{BLKREFS
331
F5
102
}
  0
ENDTAB
  0
ENDSEC
  0
SECTION
  2
BLOCKS
  0
BLOCK
  5
20
330
1F
100
AcDbEntity
  8
0
100
AcDbBlockBegin
  2
*Model_Space
 70
     0
 10
0.0
 20
0.0
 30
0.0
  3
*Model_Space
  1

  0
ENDBLK
  5
21
330
1F
100
AcDbEntity
  8
0
100
AcDbBlockEnd
  0
BLOCK
  5
1C
330
1B
100
AcDbEntity
 67
     1
  8
0
100
AcDbBlockBegin
  2
*Paper_Space
 70
     0
 10
0.0
 20
0.0
 30
0.0
  3
*Paper_Space
  1

  0
ENDBLK
  5
1D
330
1B
100
AcDbEntity
 67
     1
  8
0
100
AcDbBlockEnd
  0
BLOCK
  5
24
330
23
100
AcDbEntity
  8
0
100
AcDbBlockBegin
  2
*Paper_Space0
 70
     0
 10
0.0
 20
0.0
 30
0.0
  3
*Paper_Space0
  1

  0
ENDBLK
  5
25
330
23
100
AcDbEntity
  8
0
100
AcDbBlockEnd
  0
BLOCK
  5
8D
330
8C
100
AcDbEntity
  8
0
100
AcDbBlockBegin
  2
SW_CENTERMARKSYMBOL_0
 70
     0
 10
0.0
 20
0.0
 30
0.0
  3
SW_CENTERMARKSYMBOL_0
  1

  0
LINE
  5
8F
330
8C
100
AcDbEntity
  8
FORMAT
 62
     0
100
AcDbLine
 10
0.0
 20
0.0
 30
0.0
 11
0.0
 21
2.5
 31
0.0
  0
LINE
  5
90
330
8C
100
AcDbEntity
  8
FORMAT
 62
     0
100
AcDbLine
 10
0.0
 20
0.0
 30
0.0
 11
-2.5
 21
0.0
 31
0.0
  0
LINE
  5
91
330
8C
100
AcDbEntity
  8
FORMAT
 62
     0
100
AcDbLine
 10
0.0
 20
0.0
 30
0.0
 11
0.0
 21
-2.5
 31
0.0
  0
LINE
  5
92
330
8C
100
AcDbEntity
  8
FORMAT
 62
     0
100
AcDbLine
 10
0.0
 20
0.0
 30
0.0
 11
2.5
 21
0.0
 31
0.0
  0
LINE
  5
93
330
8C
100
AcDbEntity
  8
FORMAT
 62
     0
100
AcDbLine
 10
0.0
 20
5.0
 30
0.0
 11
0.0
 21
93.3
 31
0.0
  0
LINE
  5
94
330
8C
100
AcDbEntity
  8
FORMAT
 62
     0
100
AcDbLine
 10
-5.0
 20
0.0
 30
0.0
 11
-93.3
 21
0.0
 31
0.0
  0
LINE
  5
95
330
8C
100
AcDbEntity
  8
FORMAT
 62
     0
100
AcDbLine
 10
0.0
 20
-5.0
 30
0.0
 11
0.0
 21
-93.3
 31
0.0
  0
LINE
  5
96
330
8C
100
AcDbEntity
  8
FORMAT
 62
     0
100
AcDbLine
 10
5.0
 20
0.0
 30
0.0
 11
93.3
 21
0.0
 31
0.0
  0
ENDBLK
  5
8E
330
8C
100
AcDbEntity
  8
0
100
AcDbBlockEnd
  0
BLOCK
  5
DF
330
DE
100
AcDbEntity
  8
0
100
AcDbBlockBegin
  2
SW_CENTERMARKSYMBOL_1
 70
     0
 10
0.0
 20
0.0
 30
0.0
  3
SW_CENTERMARKSYMBOL_1
  1

  0
LINE
  5
E1
330
DE
100
AcDbEntity
  8
FORMAT
 62
     0
100
AcDbLine
 10
0.0
 20
0.0
 30
0.0
 11
0.0
 21
2.5
 31
0.0
  0
LINE
  5
E2
330
DE
100
AcDbEntity
  8
FORMAT
 62
     0
100
AcDbLine
 10
0.0
 20
0.0
 30
0.0
 11
-2.5
 21
0.0
 31
0.0
  0
LINE
  5
E3
330
DE
100
AcDbEntity
  8
FORMAT
 62
     0
100
AcDbLine
 10
0.0
 20
0.0
 30
0.0
 11
0.0
 21
-2.5
 31
0.0
  0
LINE
  5
E4
330
DE
100
AcDbEntity
  8
FORMAT
 62
     0
100
AcDbLine
 10
0.0
 20
0.0
 30
0.0
 11
2.5
 21
0.0
 31
0.0
  0
LINE
  5
E5
330
DE
100
AcDbEntity
  8
FORMAT
 62
     0
100
AcDbLine
 10
0.0
 20
5.0
 30
0.0
 11
0.0
 21
9.5
 31
0.0
  0
LINE
  5
E6
330
DE
100
AcDbEntity
  8
FORMAT
 62
     0
100
AcDbLine
 10
-5.0
 20
0.0
 30
0.0
 11
-9.5
 21
0.0
 31
0.0
  0
LINE
  5
E7
330
DE
100
AcDbEntity
  8
FORMAT
 62
     0
100
AcDbLine
 10
0.0
 20
-5.0
 30
0.0
 11
0.0
 21
-9.5
 31
0.0
  0
LINE
  5
E8
330
DE
100
AcDbEntity
  8
FORMAT
 62
     0
100
AcDbLine
 10
5.0
 20
0.0
 30
0.0
 11
9.5
 21
0.0
 31
0.0
  0
ENDBLK
  5
E0
330
DE
100
AcDbEntity
  8
0
100
AcDbBlockEnd
  0
BLOCK
  5
EB
330
EA
100
AcDbEntity
  8
0
100
AcDbBlockBegin
  2
SW_CENTERMARKSYMBOL_2
 70
     0
 10
0.0
 20
0.0
 30
0.0
  3
SW_CENTERMARKSYMBOL_2
  1

  0
LINE
  5
ED
330
EA
100
AcDbEntity
  8
FORMAT
 62
     0
100
AcDbLine
 10
0.0
 20
0.0
 30
0.0
 11
0.0
 21
2.5
 31
0.0
  0
LINE
  5
EE
330
EA
100
AcDbEntity
  8
FORMAT
 62
     0
100
AcDbLine
 10
0.0
 20
0.0
 30
0.0
 11
-2.5
 21
0.0
 31
0.0
  0
LINE
  5
EF
330
EA
100
AcDbEntity
  8
FORMAT
 62
     0
100
AcDbLine
 10
0.0
 20
0.0
 30
0.0
 11
0.0
 21
-2.5
 31
0.0
  0
LINE
  5
F0
330
EA
100
AcDbEntity
  8
FORMAT
 62
     0
100
AcDbLine
 10
0.0
 20
0.0
 30
0.0
 11
2.5
 21
0.0
 31
0.0
  0
LINE
  5
F1
330
EA
100
AcDbEntity
  8
FORMAT
 62
     0
100
AcDbLine
 10
0.0
 20
5.0
 30
0.0
 11
0.0
 21
9.5
 31
0.0
  0
LINE
  5
F2
330
EA
100
AcDbEntity
  8
FORMAT
 62
     0
100
AcDbLine
 10
-5.0
 20
0.0
 30
0.0
 11
-9.5
 21
0.0
 31
0.0
  0
LINE
  5
F3
330
EA
100
AcDbEntity
  8
FORMAT
 62
     0
100
AcDbLine
 10
0.0
 20
-5.0
 30
0.0
 11
0.0
 21
-9.5
 31
0.0
  0
LINE
  5
F4
330
EA
100
AcDbEntity
  8
FORMAT
 62
     0
100
AcDbLine
 10
5.0
 20
0.0
 30
0.0
 11
9.5
 21
0.0
 31
0.0
  0
ENDBLK
  5
EC
330
EA
100
AcDbEntity
  8
0
100
AcDbBlockEnd
  0
ENDSEC
  0
SECTION
  2
ENTITIES
  0
LINE
  5
83
330
1F
100
AcDbEntity
  8
0
  6
Continuous
 62
     7
370
    25
100
AcDbLine
 10
152.3656050619
 20
210.9861278877
 30
0.0
 11
152.3656050619
 21
225.3639610669
 31
0.0
  0
LINE
  5
84
330
1F
100
AcDbEntity
  8
0
  6
Continuous
 62
     7
370
    25
100
AcDbLine
 10
138.3656050619
 20
225.3639610669
 30
0.0
 11
138.3656050619
 21
210.9807115574
 31
0.0
  0
CIRCLE
  5
85
330
1F
100
AcDbEntity
  8
0
  6
Continuous
 62
     7
370
    25
100
AcDbCircle
 10
145.3656050619
 20
105.7339610669
 30
0.0
 40
105.2
  0
ARC
  5
86
330
1F
100
AcDbEntity
  8
0
  6
Continuous
 62
     7
370
    25
100
AcDbCircle
 10
145.3656050619
 20
105.7339610669
 30
0.0
 40
106.1999999999999
100
AcDbArc
 50
93.7792979201
 51
180.0
  0
ARC
  5
87
330
1F
100
AcDbEntity
  8
0
  6
Continuous
 62
     7
370
    25
100
AcDbCircle
 10
145.3656050619
 20
105.7339610669
 30
0.0
 40
106.1999999999999
100
AcDbArc
 50
180.0
 51
86.2207020799
  0
SPLINE
  5
88
330
1F
100
AcDbEntity
  8
0
  6
Continuous
 62
     7
370
    25
100
AcDbSpline
210
0.0
220
0.0
230
1.0
 70
     8
 71
     3
 72
    14
 73
    10
 74
     0
 42
0.00000001
 43
0.00000001
 40
0.0
 40
0.0
 40
0.0
 40
0.0
 40
0.1430262369200854
 40
0.2860548813473797
 40
0.4290043633290879
 40
0.5718891286844245
 40
0.7148760441455788
 40
0.8579191511689415
 40
1.0
 40
1.0
 40
1.0
 40
1.0
 10
150.3287169476702
 20
210.9868401124211
 30
0.0
 10
149.7188030883007
 20
211.001372303904
 30
0.0
 10
148.4989651031097
 20
211.0304369314848
 30
0.0
 10
146.1658987788829
 20
211.0598119872146
 30
0.0
 10
143.7845008733313
 20
211.0536521606862
 30
0.0
 10
141.5669369421923
 20
211.016329395065
 30
0.0
 10
139.795015892568
 20
210.9714500082492
 30
0.0
 10
138.5946582504099
 20
210.9453802869256
 30
0.0
 10
138.443252539128
 20
210.9689609945651
 30
0.0
 10
138.3678051712899
 20
210.9807115573945
 30
0.0
  0
SPLINE
  5
89
330
1F
100
AcDbEntity
  8
0
  6
Continuous
 62
     7
370
    25
100
AcDbSpline
210
0.0
220
0.0
230
1.0
 70
     8
 71
     3
 72
    10
 73
     6
 74
     0
 42
0.00000001
 43
0.00000001
 40
0.0
 40
0.0
 40
0.0
 40
0.0
 40
0.2953413249519096
 40
0.7251353873091124
 40
1.0
 40
1.0
 40
1.0
 40
1.0
 10
152.2800313629636
 20
210.9861278877167
 30
0.0
 10
152.2771362039038
 20
210.9747324404758
 30
0.0
 10
152.2700278783536
 20
210.9467538226853
 30
0.0
 10
151.496173681544
 20
210.9589253755441
 30
0.0
 10
150.6563176765209
 20
210.9790069414939
 30
0.0
 10
150.3287169476702
 20
210.9868401124211
 30
0.0
  0
CIRCLE
  5
8A
330
1F
100
AcDbEntity
  8
0
  6
Continuous
 62
     7
370
    25
100
AcDbCircle
 10
145.3656050619
 20
105.7339610669
 30
0.0
 40
90.8
  0
LINE
  5
8B
330
1F
100
AcDbEntity
  8
0
  6
Continuous
 62
     7
370
    25
100
AcDbLine
 10
152.3656050619
 20
225.3639610669
 30
0.0
 11
138.3656050619
 21
225.3639610669
 31
0.0
  0
INSERT
  5
97
330
1F
100
AcDbEntity
  8
FORMAT
 62
     7
100
AcDbBlockReference
  2
SW_CENTERMARKSYMBOL_0
 10
145.3656050619
 20
105.7339610669
 30
0.0
  0
ARC
  5
98
330
1F
100
AcDbEntity
  8
0
  6
Continuous
 62
     7
370
    25
100
AcDbCircle
 10
435.7852372114
 20
-2948.6910389331
 30
0.0
 40
3160.625000000008
100
AcDbArc
 50
91.3490806331
 51
91.441327245
  0
ARC
  5
99
330
1F
100
AcDbEntity
  8
0
  6
Continuous
 62
     7
370
    25
100
AcDbCircle
 10
435.7852372114
 20
-2948.6910389331
 30
0.0
 40
3160.625000000009
100
AcDbArc
 50
90.0
 51
91.098458118
  0
ARC
  5
9A
330
1F
100
AcDbEntity
  8
0
  6
Continuous
 62
     7
370
    25
100
AcDbCircle
 10
435.7852372114
 20
3160.1589610669
 30
0.0
 40
3160.62500000001
100
AcDbArc
 50
268.558672755
 51
270.0
  0
LINE
  5
9B
330
1F
100
AcDbEntity
  8
0
  6
Continuous
 62
     7
370
    25
100
AcDbLine
 10
435.7852372114
 20
-0.4660389331
 30
0.0
 11
460.7852372114
 21
-0.4660389331
 31
0.0
  0
LINE
  5
9C
330
1F
100
AcDbEntity
  8
0
  6
Continuous
 62
     7
370
    25
100
AcDbLine
 10
460.7852372114
 20
211.9339610669
 30
0.0
 11
435.7852372114
 21
211.9339610669
 31
0.0
  0
ARC
  5
9D
330
1F
100
AcDbEntity
  8
0
  6
Continuous
 62
     7
370
    25
100
AcDbCircle
 10
460.7852372114
 20
-2948.6910389331
 30
0.0
 40
3160.625000000009
100
AcDbArc
 50
88.9015578523
 51
90.0
  0
ARC
  5
9E
330
1F
100
AcDbEntity
  8
0
  6
Continuous
 62
     7
370
    25
100
AcDbCircle
 10
460.7852372114
 20
-2948.6910389331
 30
0.0
 40
3160.625000000009
100
AcDbArc
 50
88.558672755
 51
88.6509451522
  0
ARC
  5
9F
330
1F
100
AcDbEntity
  8
0
  6
Continuous
 62
     7
370
    25
100
AcDbCircle
 10
460.7852372114
 20
3160.1589610669
 30
0.0
 40
3160.625000000009
100
AcDbArc
 50
270.0
 51
271.441327245
  0
LINE
  5
A0
330
1F
100
AcDbEntity
  8
0
  6
Continuous
 62
     7
370
    25
100
AcDbLine
 10
375.2852372114
 20
211.347195399
 30
0.0
 11
375.2852372114
 21
225.3639610669
 31
0.0
  0
LINE
  5
A1
330
1F
100
AcDbEntity
  8
0
  6
Continuous
 62
     7
370
    25
100
AcDbLine
 10
361.2852372114
 20
225.3639610669
 30
0.0
 11
361.2852372114
 21
211.0521355539
 31
0.0
  0
LINE
  5
A2
330
1F
100
AcDbEntity
  8
0
  6
Continuous
 62
     7
370
    25
100
AcDbLine
 10
535.2852372114
 20
211.0520686343
 30
0.0
 11
535.2852372114
 21
225.3639610669
 31
0.0
  0
LINE
  5
A3
330
1F
100
AcDbEntity
  8
0
  6
Continuous
 62
     7
370
    25
100
AcDbLine
 10
521.2852372114
 20
225.3639610669
 30
0.0
 11
521.2852372114
 21
211.3472579297
 31
0.0
  0
LINE
  5
A4
330
1F
100
AcDbEntity
  8
0
  6
Continuous
 62
     7
370
    25
100
AcDbLine
 10
356.2852372114
 20
105.7339610669
 30
0.0
 11
356.2852372114
 21
210.9339610669
 31
0.0
  0
LINE
  5
A5
330
1F
100
AcDbEntity
  8
0
  6
Continuous
 62
     7
370
    25
100
AcDbLine
 10
356.2852372114
 20
0.5339610669
 30
0.0
 11
356.2852372114
 21
105.7339610669
 31
0.0
  0
SPLINE
  5
A6
330
1F
100
AcDbEntity
  8
0
  6
Continuous
 62
     7
370
    25
100
AcDbSpline
210
0.0
220
0.0
230
1.0
 70
     8
 71
     3
 72
    17
 73
    13
 74
     0
 42
0.00000001
 43
0.00000001
 40
0.0
 40
0.0
 40
0.0
 40
0.0
 40
0.0690363249134231
 40
0.1760454968762557
 40
0.2832882372791105
 40
0.3908498801611851
 40
0.4984279515386371
 40
0.6057589094905331
 40
0.7129406671102154
 40
0.8202190661732465
 40
0.9276239925470777
 40
0.9999999999999999
 40
0.9999999999999999
 40
0.9999999999999999
 40
0.9999999999999999
 10
375.1945781702935
 20
211.3471760556753
 30
0.0
 10
375.1982486977686
 20
211.3474528988505
 30
0.0
 10
375.2076086953344
 20
211.3481588604497
 30
0.0
 10
374.3327396899471
 20
211.2751837111661
 30
0.0
 10
372.7790432515478
 20
211.1642542257052
 30
0.0
 10
370.6850433692404
 20
211.0504653242987
 30
0.0
 10
368.3259586937708
 20
210.9726170085486
 30
0.0
 10
365.9639426480128
 20
210.9476618872389
 30
0.0
 10
363.8581169673128
 20
210.9705726878261
 30
0.0
 10
362.2797011864519
 20
211.0151181449334
 30
0.0
 10
361.3750819597028
 20
211.0518588150564
 30
0.0
 10
361.3732112933282
 20
211.0520468113692
 30
0.0
 10
361.3724582025495
 20
211.0521224947148
 30
0.0
  0
LINE
  5
A7
330
1F
100
AcDbEntity
  8
0
  6
Continuous
 62
     7
370
    25
100
AcDbLine
 10
540.2852372114
 20
105.7339610669
 30
0.0
 11
540.2852372114
 21
210.9339610669
 31
0.0
  0
LINE
  5
A8
330
1F
100
AcDbEntity
  8
0
  6
Continuous
 62
     7
370
    25
100
AcDbLine
 10
540.2852372114
 20
0.5339610669
 30
0.0
 11
540.2852372114
 21
105.7339610669
 31
0.0
  0
SPLINE
  5
A9
330
1F
100
AcDbEntity
  8
0
  6
Continuous
 62
     7
370
    25
100
AcDbSpline
210
0.0
220
0.0
230
1.0
 70
     8
 71
     3
 72
    17
 73
    13
 74
     0
 42
0.00000001
 43
0.00000001
 40
0.0
 40
0.0
 40
0.0
 40
0.0
 40
0.0710973012187739
 40
0.1783888076462052
 40
0.2857570181134803
 40
0.3931674225637379
 40
0.5004578680751138
 40
0.6076409682526934
 40
0.7149578407154122
 40
0.8225268161669955
 40
0.9301039941124494
 40
1.0
 40
1.0
 40
1.0
 40
1.0
 10
535.1964977150157
 20
211.0520563797533
 30
0.0
 10
535.1975219157263
 20
211.0520594509959
 30
0.0
 10
535.2000917171168
 20
211.0520671569888
 30
0.0
 10
534.3061815790302
 20
211.0156762271029
 30
0.0
 10
532.7348280899611
 20
210.9710299008656
 30
0.0
 10
530.6311976967193
 20
210.9476654154461
 30
0.0
 10
528.2721661615134
 20
210.9720561550276
 30
0.0
 10
525.9167072902254
 20
211.0491338939824
 30
0.0
 10
523.8190401523433
 20
211.1624741134495
 30
0.0
 10
522.252719943674
 20
211.273976482803
 30
0.0
 10
521.3660350785399
 20
211.3478842462783
 30
0.0
 10
521.3726111222202
 20
211.3474193344349
 30
0.0
 10
521.3752010300468
 20
211.3472362336406
 30
0.0
  0
LINE
  5
AA
330
1F
100
AcDbEntity
  8
0
  6
Continuous
 62
     7
370
    25
100
AcDbLine
 10
375.2852372114
 20
225.3639610669
 30
0.0
 11
361.2852372114
 21
225.3639610669
 31
0.0
  0
LINE
  5
AB
330
1F
100
AcDbEntity
  8
0
  6
Continuous
 62
     7
370
    25
100
AcDbLine
 10
535.2852372114
 20
225.3639610669
 30
0.0
 11
521.2852372114
 21
225.3639610669
 31
0.0
  0
LINE
  5
AC
330
1F
100
AcDbEntity
  8
0
  6
Continuous
 62
     1
370
    25
100
AcDbLine
 10
435.7852372114
 20
105.7339610669
 30
0.0
 11
435.7852372114
 21
211.9339610669
 31
0.0
  0
LINE
  5
AD
330
1F
100
AcDbEntity
  8
0
  6
Continuous
 62
     1
370
    25
100
AcDbLine
 10
435.7852372114
 20
-0.4660389331
 30
0.0
 11
435.7852372114
 21
105.7339610669
 31
0.0
  0
LINE
  5
AE
330
1F
100
AcDbEntity
  8
0
  6
Continuous
 62
     1
370
    25
100
AcDbLine
 10
460.7852372114
 20
105.7339610669
 30
0.0
 11
460.7852372114
 21
211.9339610669
 31
0.0
  0
LINE
  5
AF
330
1F
100
AcDbEntity
  8
0
  6
Continuous
 62
     1
370
    25
100
AcDbLine
 10
460.7852372114
 20
-0.4660389331
 30
0.0
 11
460.7852372114
 21
105.7339610669
 31
0.0
  0
ARC
  5
B0
330
1F
100
AcDbEntity
  8
0
  6
Continuous
 62
     7
370
    25
100
AcDbCircle
 10
3199.7906050619
 20
398.4981192623
 30
0.0
 40
3160.625000000009
100
AcDbArc
 50
180.0
 51
181.441327245
  0
ARC
  5
B1
330
1F
100
AcDbEntity
  8
0
  6
Continuous
 62
     7
370
    25
100
AcDbCircle
 10
-2909.0593949381
 20
398.4981192623
 30
0.0
 40
3160.625000000009
100
AcDbArc
 50
358.558672755
 51
0.0
  0
LINE
  5
B2
330
1F
100
AcDbEntity
  8
0
  6
Continuous
 62
     7
370
    25
100
AcDbLine
 10
251.5656050619
 20
398.4981192623
 30
0.0
 11
251.5656050619
 21
423.4981192623
 31
0.0
  0
LINE
  5
B3
330
1F
100
AcDbEntity
  8
0
  6
Continuous
 62
     7
370
    25
100
AcDbLine
 10
39.1656050619
 20
423.4981192623
 30
0.0
 11
39.1656050619
 21
398.4981192623
 31
0.0
  0
ARC
  5
B4
330
1F
100
AcDbEntity
  8
0
  6
Continuous
 62
     7
370
    25
100
AcDbCircle
 10
3199.7906050619
 20
423.4981192623
 30
0.0
 40
3160.625000000009
100
AcDbArc
 50
178.558672755
 51
180.0
  0
ARC
  5
B5
330
1F
100
AcDbEntity
  8
0
  6
Continuous
 62
     7
370
    25
100
AcDbCircle
 10
-2909.0593949381
 20
423.4981192623
 30
0.0
 40
3160.625000000009
100
AcDbArc
 50
0.0
 51
1.441327245
  0
LINE
  5
B6
330
1F
100
AcDbEntity
  8
0
  6
Continuous
 62
     7
370
    25
100
AcDbLine
 10
250.5656050619
 20
318.9981192623
 30
0.0
 11
40.1656050619
 21
318.9981192623
 31
0.0
  0
LINE
  5
B7
330
1F
100
AcDbEntity
  8
0
  6
Continuous
 62
     7
370
    25
100
AcDbLine
 10
250.5656050619
 20
502.9981192623
 30
0.0
 11
40.1656050619
 21
502.9981192623
 31
0.0
  0
LINE
  5
B8
330
1F
100
AcDbEntity
  8
0
  6
Continuous
 62
     1
370
    25
100
AcDbLine
 10
251.5656050619
 20
398.4981192623
 30
0.0
 11
39.1656050619
 21
398.4981192623
 31
0.0
  0
LINE
  5
B9
330
1F
100
AcDbEntity
  8
0
  6
Continuous
 62
     1
370
    25
100
AcDbLine
 10
251.5656050619
 20
423.4981192623
 30
0.0
 11
39.1656050619
 21
423.4981192623
 31
0.0
  0
ARC
  5
BA
330
1F
100
AcDbEntity
  8
0
  6
Continuous
 62
     7
370
    25
100
AcDbCircle
 10
-196.2520504829
 20
3160.1589610669
 30
0.0
 40
3160.62500000001
100
AcDbArc
 50
270.0
 51
271.441327245
  0
ARC
  5
BB
330
1F
100
AcDbEntity
  8
0
  6
Continuous
 62
     7
370
    25
100
AcDbCircle
 10
-196.2520504829
 20
-2948.6910389331
 30
0.0
 40
3160.625000000009
100
AcDbArc
 50
88.9015451444
 51
90.0
  0
ARC
  5
BC
330
1F
100
AcDbEntity
  8
0
  6
Continuous
 62
     7
370
    25
100
AcDbCircle
 10
-196.2520504829
 20
-2948.6910389331
 30
0.0
 40
3160.625000000008
100
AcDbArc
 50
88.558672755
 51
88.6509179962
  0
LINE
  5
BD
330
1F
100
AcDbEntity
  8
0
  6
Continuous
 62
     7
370
    25
100
AcDbLine
 10
-196.2520504829
 20
211.9339610669
 30
0.0
 11
-221.2520504829
 21
211.9339610669
 31
0.0
  0
LINE
  5
BE
330
1F
100
AcDbEntity
  8
0
  6
Continuous
 62
     7
370
    25
100
AcDbLine
 10
-221.2520504829
 20
-0.4660389331
 30
0.0
 11
-196.2520504829
 21
-0.4660389331
 31
0.0
  0
ARC
  5
BF
330
1F
100
AcDbEntity
  8
0
  6
Continuous
 62
     7
370
    25
100
AcDbCircle
 10
-221.2520504829
 20
3160.1589610669
 30
0.0
 40
3160.625000000009
100
AcDbArc
 50
268.558672755
 51
270.0
  0
ARC
  5
C0
330
1F
100
AcDbEntity
  8
0
  6
Continuous
 62
     7
370
    25
100
AcDbCircle
 10
-221.2520504829
 20
-2948.6910389331
 30
0.0
 40
3160.625000000009
100
AcDbArc
 50
91.3490534514
 51
91.441327245
  0
ARC
  5
C1
330
1F
100
AcDbEntity
  8
0
  6
Continuous
 62
     7
370
    25
100
AcDbCircle
 10
-221.2520504829
 20
-2948.6910389331
 30
0.0
 40
3160.625000000009
100
AcDbArc
 50
90.0
 51
91.0984454083
  0
LINE
  5
C2
330
1F
100
AcDbEntity
  8
0
  6
Continuous
 62
     7
370
    25
100
AcDbLine
 10
-121.7520504829
 20
211.0521355539
 30
0.0
 11
-121.7520504829
 21
225.3639610669
 31
0.0
  0
LINE
  5
C3
330
1F
100
AcDbEntity
  8
0
  6
Continuous
 62
     7
370
    25
100
AcDbLine
 10
-135.7520504829
 20
225.3639610669
 30
0.0
 11
-135.7520504829
 21
211.347195399
 31
0.0
  0
LINE
  5
C4
330
1F
100
AcDbEntity
  8
0
  6
Continuous
 62
     7
370
    25
100
AcDbLine
 10
-281.7520504829
 20
211.3472579297
 30
0.0
 11
-281.7520504829
 21
225.3639610669
 31
0.0
  0
LINE
  5
C5
330
1F
100
AcDbEntity
  8
0
  6
Continuous
 62
     7
370
    25
100
AcDbLine
 10
-295.7520504829
 20
225.3639610669
 30
0.0
 11
-295.7520504829
 21
211.0520686343
 31
0.0
  0
LINE
  5
C6
330
1F
100
AcDbEntity
  8
0
  6
Continuous
 62
     7
370
    25
100
AcDbLine
 10
-116.7520504829
 20
210.9339610669
 30
0.0
 11
-116.7520504829
 21
0.5339610669
 31
0.0
  0
SPLINE
  5
C7
330
1F
100
AcDbEntity
  8
0
  6
Continuous
 62
     7
370
    25
100
AcDbSpline
210
0.0
220
0.0
230
1.0
 70
     8
 71
     3
 72
    10
 73
     6
 74
     0
 42
0.00000001
 43
0.00000001
 40
0.0
 40
0.0
 40
0.0
 40
0.0
 40
0.4246092246773892
 40
0.8492579244452817
 40
1.0
 40
1.0
 40
1.0
 40
1.0
 10
-133.6598308072613
 20
211.1960693047613
 30
0.0
 10
-134.1564992193759
 20
211.2313180626447
 30
0.0
 10
-135.1498822178975
 20
211.3018188554196
 30
0.0
 10
-135.7768911509733
 20
211.3570909656092
 30
0.0
 10
-135.6853650219495
 20
211.3492340390416
 30
0.0
 10
-135.6613868157489
 20
211.3471756650303
 30
0.0
  0
SPLINE
  5
C8
330
1F
100
AcDbEntity
  8
0
  6
Continuous
 62
     7
370
    25
100
AcDbSpline
210
0.0
220
0.0
230
1.0
 70
     8
 71
     3
 72
    15
 73
    11
 74
     0
 42
0.00000001
 43
0.00000001
 40
0.0
 40
0.0
 40
0.0
 40
0.0
 40
0.0468125408868065
 40
0.1902727157649199
 40
0.333788099215669
 40
0.477409121673547
 40
0.6209378667311023
 40
0.7642727378179286
 40
0.9076659112038472
 40
1.0
 40
1.0
 40
1.0
 40
1.0
 10
-121.8392902061968
 20
211.0521217105174
 30
0.0
 10
-121.8148362298196
 20
211.0531533674801
 30
0.0
 10
-121.7154414008188
 20
211.0573466064778
 30
0.0
 10
-122.3525566194098
 20
211.0300421100713
 30
0.0
 10
-123.6899670634876
 20
210.9857556833873
 30
0.0
 10
-125.6525333983801
 20
210.9510808406879
 30
0.0
 10
-127.9514821296124
 20
210.9576855010313
 30
0.0
 10
-130.3333312232868
 20
211.0175798686973
 30
0.0
 10
-132.302345014909
 20
211.1096939683095
 30
0.0
 10
-133.2777613762941
 20
211.1717586446913
 30
0.0
 10
-133.6598308072613
 20
211.1960693047613
 30
0.0
  0
LINE
  5
C9
330
1F
100
AcDbEntity
  8
0
  6
Continuous
 62
     7
370
    25
100
AcDbLine
 10
-300.7520504829
 20
210.9339610669
 30
0.0
 11
-300.7520504829
 21
0.5339610669
 31
0.0
  0
SPLINE
  5
CA
330
1F
100
AcDbEntity
  8
0
  6
Continuous
 62
     7
370
    25
100
AcDbSpline
210
0.0
220
0.0
230
1.0
 70
     8
 71
     3
 72
    10
 73
     6
 74
     0
 42
0.00000001
 43
0.00000001
 40
0.0
 40
0.0
 40
0.0
 40
0.0
 40
0.4278341130965744
 40
0.8556754277649279
 40
1.0
 40
1.0
 40
1.0
 40
1.0
 10
-293.6883973516615
 20
210.9868401124211
 30
0.0
 10
-294.181590488571
 20
211.0009239661761
 30
0.0
 10
-295.1679850641257
 20
211.0290919107544
 30
0.0
 10
-295.7829295711579
 20
211.0572221908693
 30
0.0
 10
-295.6874191080227
 20
211.0530974885805
 30
0.0
 10
-295.6633273069359
 20
211.05205706323
 30
0.0
  0
SPLINE
  5
CB
330
1F
100
AcDbEntity
  8
0
  6
Continuous
 62
     7
370
    25
100
AcDbSpline
210
0.0
220
0.0
230
1.0
 70
     8
 71
     3
 72
    15
 73
    11
 74
     0
 42
0.00000001
 43
0.00000001
 40
0.0
 40
0.0
 40
0.0
 40
0.0
 40
0.0498357851717037
 40
0.1925603870119653
 40
0.3354581689968231
 40
0.4788131216412433
 40
0.6223375612135048
 40
0.765593401558263
 40
0.9085655492874202
 40
1.0
 40
1.0
 40
1.0
 40
1.0
 10
-281.8420091800105
 20
211.3472366660772
 30
0.0
 10
-281.8175140577532
 20
211.3493127092956
 30
0.0
 10
-281.7228674056431
 20
211.3573343283834
 30
0.0
 10
-282.3724443646672
 20
211.3019322198981
 30
0.0
 10
-283.7207498046569
 20
211.2001561624621
 30
0.0
 10
-285.6892689377701
 20
211.0818970163826
 30
0.0
 10
-287.9944828336006
 20
210.9906956260292
 30
0.0
 10
-290.3792800774804
 20
210.9495571601132
 30
0.0
 10
-292.3424990575856
 20
210.9582665816754
 30
0.0
 10
-293.3107240304111
 20
210.9788220769543
 30
0.0
 10
-293.6883973516615
 20
210.9868401124211
 30
0.0
  0
LINE
  5
CC
330
1F
100
AcDbEntity
  8
0
  6
Continuous
 62
     7
370
    25
100
AcDbLine
 10
-121.7520504829
 20
225.3639610669
 30
0.0
 11
-135.7520504829
 21
225.3639610669
 31
0.0
  0
LINE
  5
CD
330
1F
100
AcDbEntity
  8
0
  6
Continuous
 62
     7
370
    25
100
AcDbLine
 10
-281.7520504829
 20
225.3639610669
 30
0.0
 11
-295.7520504829
 21
225.3639610669
 31
0.0
  0
LINE
  5
CE
330
1F
100
AcDbEntity
  8
0
  6
Continuous
 62
     1
370
    25
100
AcDbLine
 10
-196.2520504829
 20
211.9339610669
 30
0.0
 11
-196.2520504829
 21
-0.4660389331
 31
0.0
  0
LINE
  5
CF
330
1F
100
AcDbEntity
  8
0
  6
Continuous
 62
     1
370
    25
100
AcDbLine
 10
-221.2520504829
 20
211.9339610669
 30
0.0
 11
-221.2520504829
 21
-0.4660389331
 31
0.0
  0
ARC
  5
D0
330
1F
100
AcDbEntity
  8
0
  6
Continuous
 62
     7
370
    25
100
AcDbCircle
 10
-2909.0593949381
 20
-189.9134111985
 30
0.0
 40
3160.625000000009
100
AcDbArc
 50
0.0
 51
1.441327245
  0
ARC
  5
D1
330
1F
100
AcDbEntity
  8
0
  6
Continuous
 62
     7
370
    25
100
AcDbCircle
 10
3199.7906050619
 20
-189.9134111985
 30
0.0
 40
3160.625000000009
100
AcDbArc
 50
178.558672755
 51
180.0
  0
LINE
  5
D2
330
1F
100
AcDbEntity
  8
0
  6
Continuous
 62
     7
370
    25
100
AcDbLine
 10
39.1656050619
 20
-189.9134111985
 30
0.0
 11
39.1656050619
 21
-214.9134111985
 31
0.0
  0
LINE
  5
D3
330
1F
100
AcDbEntity
  8
0
  6
Continuous
 62
     7
370
    25
100
AcDbLine
 10
251.5656050619
 20
-214.9134111985
 30
0.0
 11
251.5656050619
 21
-189.9134111985
 31
0.0
  0
ARC
  5
D4
330
1F
100
AcDbEntity
  8
0
  6
Continuous
 62
     7
370
    25
100
AcDbCircle
 10
-2909.0593949381
 20
-214.9134111985
 30
0.0
 40
3160.625000000009
100
AcDbArc
 50
358.558672755
 51
0.0
  0
ARC
  5
D5
330
1F
100
AcDbEntity
  8
0
  6
Continuous
 62
     7
370
    25
100
AcDbCircle
 10
3199.7906050619
 20
-214.9134111985
 30
0.0
 40
3160.625000000009
100
AcDbArc
 50
180.0
 51
181.441327245
  0
CIRCLE
  5
D6
330
1F
100
AcDbEntity
  8
0
  6
Continuous
 62
     7
370
    25
100
AcDbCircle
 10
145.3656050619
 20
-122.4134111985
 30
0.0
 40
5.000000000000014
  0
CIRCLE
  5
D7
330
1F
100
AcDbEntity
  8
0
  6
Continuous
 62
     7
370
    25
100
AcDbCircle
 10
145.3656050619
 20
-122.4134111985
 30
0.0
 40
7.000000000000028
  0
CIRCLE
  5
D8
330
1F
100
AcDbEntity
  8
0
  6
Continuous
 62
     7
370
    25
100
AcDbCircle
 10
145.3656050619
 20
-282.4134111985
 30
0.0
 40
7.0
  0
CIRCLE
  5
D9
330
1F
100
AcDbEntity
  8
0
  6
Continuous
 62
     7
370
    25
100
AcDbCircle
 10
145.3656050619
 20
-282.4134111985
 30
0.0
 40
5.0
  0
LINE
  5
DA
330
1F
100
AcDbEntity
  8
0
  6
Continuous
 62
     7
370
    25
100
AcDbLine
 10
40.1656050619
 20
-110.4134111985
 30
0.0
 11
250.5656050619
 21
-110.4134111985
 31
0.0
  0
LINE
  5
DB
330
1F
100
AcDbEntity
  8
0
  6
Continuous
 62
     7
370
    25
100
AcDbLine
 10
40.1656050619
 20
-294.4134111985
 30
0.0
 11
250.5656050619
 21
-294.4134111985
 31
0.0
  0
LINE
  5
DC
330
1F
100
AcDbEntity
  8
0
  6
Continuous
 62
     1
370
    25
100
AcDbLine
 10
39.1656050619
 20
-189.9134111985
 30
0.0
 11
251.5656050619
 21
-189.9134111985
 31
0.0
  0
LINE
  5
DD
330
1F
100
AcDbEntity
  8
0
  6
Continuous
 62
     1
370
    25
100
AcDbLine
 10
39.1656050619
 20
-214.9134111985
 30
0.0
 11
251.5656050619
 21
-214.9134111985
 31
0.0
  0
INSERT
  5
E9
330
1F
100
AcDbEntity
  8
FORMAT
 62
     7
100
AcDbBlockReference
  2
SW_CENTERMARKSYMBOL_1
 10
145.3656050619
 20
-122.4134111985
 30
0.0
  0
INSERT
  5
F5
330
1F
100
AcDbEntity
  8
FORMAT
 62
     7
100
AcDbBlockReference
  2
SW_CENTERMARKSYMBOL_2
 10
145.3656050619
 20
-282.4134111985
 30
0.0
  0
SPLINE
  5
F6
330
1F
100
AcDbEntity
  8
0
  6
Continuous
 62
     7
370
    25
100
AcDbSpline
210
0.0
220
0.0
230
1.0
 70
     8
 71
     3
 72
    11
 73
     7
 74
     0
 42
0.00000001
 43
0.00000001
 40
0.0
 40
0.0
 40
0.0
 40
0.0
 40
0.0749848521537464
 40
0.4054074874817936
 40
0.7357679348289823
 40
1.0
 40
1.0
 40
1.0
 40
1.0
 10
409.8738535857129
 20
-122.9248861790536
 30
0.0
 10
408.4420114122286
 20
-123.7445504986404
 30
0.0
 10
400.7007207201761
 20
-128.1760862400301
 30
0.0
 10
386.7632884724489
 20
-136.4124548150109
 30
0.0
 10
369.3027408931586
 20
-146.8679177418716
 30
0.0
 10
358.1754050955844
 20
-153.7416563021065
 30
0.0
 10
353.2305077823098
 20
-156.7962896803917
 30
0.0
  0
SPLINE
  5
F7
330
1F
100
AcDbEntity
  8
0
  6
Continuous
 62
     7
370
    25
100
AcDbSpline
210
0.0
220
0.0
230
1.0
 70
     8
 71
     3
 72
    11
 73
     7
 74
     0
 42
0.00000001
 43
0.00000001
 40
0.0
 40
0.0
 40
0.0
 40
0.0
 40
0.0835412360560115
 40
0.4140387605908547
 40
0.7445253157421927
 40
1.0
 40
1.0
 40
1.0
 40
1.0
 10
458.3849850208953
 20
-338.9511042194703
 30
0.0
 10
460.0068840186706
 20
-338.087476271809
 30
0.0
 10
468.0451784292559
 20
-333.8072493809647
 30
0.0
 10
482.3960582848742
 20
-325.9094721703977
 30
0.0
 10
500.0041634034234
 20
-316.0839751911486
 30
0.0
 10
511.1751527900402
 20
-309.6466289135702
 30
0.0
 10
516.0456199719156
 20
-306.8399944519106
 30
0.0
  0
LINE
  5
F8
330
1F
100
AcDbEntity
  8
0
  6
Continuous
 62
     7
370
    25
100
AcDbLine
 10
427.541762847
 20
-112.7029260773
 30
0.0
 11
409.8640933174
 21
-122.9080274751
 31
0.0
  0
LINE
  5
F9
330
1F
100
AcDbEntity
  8
0
  6
Continuous
 62
     7
370
    25
100
AcDbLine
 10
516.0554627233
 20
-306.8568058447
 30
0.0
 11
533.733132253
 21
-296.651704447
 31
0.0
  0
LINE
  5
FA
330
1F
100
AcDbEntity
  8
0
  6
Continuous
 62
     7
370
    25
100
AcDbLine
 10
422.2300702902
 20
-156.3199168726
 30
0.0
 11
422.2300702902
 21
-144.753413108
 31
0.0
  0
LINE
  5
FB
330
1F
100
AcDbEntity
  8
0
  6
Continuous
 62
     7
370
    25
100
AcDbLine
 10
408.2300702902
 20
-144.753413108
 30
0.0
 11
408.2300702902
 21
-156.4918903584
 31
0.0
  0
SPLINE
  5
FC
330
1F
100
AcDbEntity
  8
0
  6
Continuous
 62
     7
370
    25
100
AcDbSpline
210
0.0
220
0.0
230
1.0
 70
     8
 71
     3
 72
    11
 73
     7
 74
     0
 42
0.00000001
 43
0.00000001
 40
0.0
 40
0.0
 40
0.0
 40
0.0
 40
0.0835464718859337
 40
0.4140415887551415
 40
0.7445257363255884
 40
1.0
 40
1.0
 40
1.0
 40
1.0
 10
485.2125807849189
 20
-80.60844612831303
 30
0.0
 10
483.5905682784363
 20
-81.4721344127299
 30
0.0
 10
475.5521601924353
 20
-85.75242131649539
 30
0.0
 10
461.2011671088284
 20
-93.65025941205418
 30
0.0
 10
443.5930345851198
 20
-103.4757723501942
 30
0.0
 10
432.4220177528122
 20
-109.9131344815858
 30
0.0
 10
427.5515231153768
 20
-112.71978478127
 30
0.0
  0
SPLINE
  5
FD
330
1F
100
AcDbEntity
  8
0
  6
Continuous
 62
     7
370
    25
100
AcDbSpline
210
0.0
220
0.0
230
1.0
 70
     8
 71
     3
 72
    11
 73
     7
 74
     0
 42
0.00000001
 43
0.00000001
 40
0.0
 40
0.0
 40
0.0
 40
0.0
 40
0.0749842371947716
 40
0.4053978149331753
 40
0.735749206396046
 40
1.0
 40
1.0
 40
1.0
 40
1.0
 10
533.7232895015778
 20
-296.6348930541274
 30
0.0
 10
535.1551591909554
 20
-295.815213001682
 30
0.0
 10
542.8964774340799
 20
-291.3836615898492
 30
0.0
 10
556.8339375332027
 20
-283.1472778056578
 30
0.0
 10
574.294973635453
 20
-272.6915185541221
 30
0.0
 10
585.4227947646037
 20
-265.8174785980938
 30
0.0
 10
590.3681778094549
 20
-262.7625444601683
 30
0.0
  0
LINE
  5
FE
330
1F
100
AcDbEntity
  8
0
  6
Continuous
 62
     7
370
    25
100
AcDbLine
 10
535.3671552801
 20
-91.1799608555
 30
0.0
 11
535.3671552801
 21
-79.4407641622
 31
0.0
  0
LINE
  5
FF
330
1F
100
AcDbEntity
  8
0
  6
Continuous
 62
     7
370
    25
100
AcDbLine
 10
521.3671552801
 20
-79.4407641622
 30
0.0
 11
521.3671552801
 21
-91.0086831344
 31
0.0
  0
LWPOLYLINE
  5
100
330
1F
100
AcDbEntity
  8
0
  6
Continuous
 62
     7
370
    25
100
AcDbPolyline
 90
      130
 70
   128
 43
0.0
 10
332.3571555352
 20
-204.391572423
 10
332.4453751591
 20
-200.260230558
 10
332.7098247838
 20
-196.2405439893
 10
333.1498771639
 20
-192.3420469692
 10
333.7644885437
 20
-188.573986302
 10
334.5522011331
 20
-184.9452994113
 10
335.5111465648
 20
-181.4645931415
 10
336.639050326
 20
-178.1401233432
 10
337.9332371539
 20
-174.9797752916
 10
339.39063738
 20
-171.9910449831
 10
341.0077942123
 20
-169.1810213558
 10
342.7808719332
 20
-166.5563694752
 10
344.7056649984
 20
-164.1233147257
 10
346.7776080113
 20
-161.8876280442
 10
348.9917865521
 20
-159.8546122327
 10
351.3429488338
 20
-158.02908938
 10
353.8255181593
 20
-156.4153894246
 10
356.4336061485
 20
-155.0173398845
 10
359.1610267047
 20
-153.8382567789
 10
362.0013106877
 20
-152.8809367624
 10
364.9477212578
 20
-152.1476504926
 10
367.9932698545
 20
-151.6401372432
 10
371.1307327731
 20
-151.3596007799
 10
374.3526682982
 20
-151.3067065039
 10
377.6514343547
 20
-151.4815798748
 10
381.0192066339
 20
-151.8838061121
 10
384.447997152
 20
-152.5124311798
 10
387.9296731969
 20
-153.3659640485
 10
391.4559766175
 20
-154.4423802326
 10
395.0185434117
 20
-155.7391265919
 10
398.6089235648
 20
-157.2531273873
 10
402.2186010916
 20
-158.9807915761
 10
405.8390142358
 20
-160.9180213298
 10
409.4615757775
 20
-163.0602217533
 10
413.077693401
 20
-165.4023117841
 10
416.6787900747
 20
-167.9387362432
 10
420.2563243951
 20
-170.6634790121
 10
423.8018108462
 20
-173.5700773021
 10
427.3068399257
 20
-176.651636983
 10
430.763098092
 20
-179.9008489357
 10
434.1623874825
 20
-183.3100063885
 10
437.4966453583
 20
-186.8710231966
 10
440.7579632282
 20
-190.5754530215
 10
443.9386056064
 20
-194.414509365
 10
447.0310283607
 20
-198.3790864094
 10
450.0278966059
 20
-202.4597806162
 10
452.9221021016
 20
-206.6469130295
 10
455.7067801123
 20
-210.9305522338
 10
458.3753256892
 20
-215.3005379101
 10
460.9214093371
 20
-219.7465049353
 10
463.3389920269
 20
-224.2579079668
 10
465.6223395195
 20
-228.824046455
 10
467.766035967
 20
-233.4340900238
 10
469.7649967582
 20
-238.0771041594
 10
471.614480579
 20
-242.742076145
 10
473.310100658
 20
-247.4179411826
 10
474.8478351719
 20
-252.0936086368
 10
476.2240367842
 20
-256.7579883411
 10
477.4354412967
 20
-261.4000169021
 10
478.4791753918
 20
-266.008683941
 10
479.3527634475
 20
-270.5730582086
 10
480.0541334095
 20
-275.0823135136
 10
480.5816217056
 20
-279.5257544004
 10
480.933977192
 20
-283.8928415183
 10
481.1103641204
 20
-288.1732166191
 10
481.1103641204
 20
-292.3567271259
 10
480.933977192
 20
-296.4334502141
 10
480.5816217056
 20
-300.3937163468
 10
480.0541334095
 20
-304.2281322104
 10
479.3527634475
 20
-307.927602994
 10
478.4791753918
 20
-311.4833539617
 10
477.4354412967
 20
-314.886951265
 10
476.2240367842
 20
-318.1303219471
 10
474.8478351719
 20
-321.2057730912
 10
473.310100658
 20
-324.1060100668
 10
471.614480579
 20
-326.8241538324
 10
469.7649967582
 20
-329.3537572511
 10
467.766035967
 20
-331.6888203832
 10
465.6223395195
 20
-333.8238047169
 10
463.3389920269
 20
-335.7536463053
 10
460.9214093371
 20
-337.4737677772
 10
458.3753256892
 20
-338.9800891947
 10
455.7067801123
 20
-340.2690377296
 10
452.9221021016
 20
-341.3375561386
 10
450.0278966059
 20
-342.183110014
 10
447.0310283607
 20
-342.8036937954
 10
443.9386056064
 20
-343.1978355266
 10
440.7579632282
 20
-343.3646003471
 10
437.4966453583
 20
-343.303592709
 10
434.1623874825
 20
-343.0149573158
 10
430.763098092
 20
-342.4993787788
 10
427.3068399257
 20
-341.7580799931
 10
423.8018108462
 20
-340.7928192378
 10
420.2563243951
 20
-339.6058860046
 10
416.6787900747
 20
-338.200095568
 10
413.077693401
 20
-336.5787823076
 10
409.4615757775
 20
-334.7457917995
 10
405.8390142358
 20
-332.7054716944
 10
402.2186010916
 20
-330.4626614064
 10
398.6089235648
 20
-328.0226806335
 10
395.0185434117
 20
-325.3913167408
 10
391.4559766175
 20
-322.5748110325
 10
387.9296731969
 20
-319.579843949
 10
384.447997152
 20
-316.4135192214
 10
381.0192066339
 20
-313.0833470222
 10
377.6514343547
 20
-309.5972261517
 10
374.3526682982
 20
-305.9634253037
 10
371.1307327731
 20
-302.1905634522
 10
367.9932698545
 20
-298.2875894088
 10
364.9477212578
 20
-294.2637605966
 10
362.0013106877
 20
-290.128621093
 10
359.1610267047
 20
-285.8919789921
 10
356.4336061485
 20
-281.5638831408
 10
353.8255181593
 20
-277.1545993044
 10
351.3429488338
 20
-272.674585817
 10
348.9917865521
 20
-268.1344687756
 10
346.7776080113
 20
-263.5450168361
 10
344.7056649984
 20
-258.9171156717
 10
342.7808719332
 20
-254.2617421525
 10
341.0077942123
 20
-249.5899383102
 10
339.39063738
 20
-244.9127851473
 10
337.9332371539
 20
-240.2413763545
 10
336.639050326
 20
-235.5867919972
 10
335.5111465648
 20
-230.9600722353
 10
334.5522011331
 20
-226.372191137
 10
333.7644885437
 20
-221.8340306493
 10
333.1498771639
 20
-217.3563547874
 10
332.7098247838
 20
-212.949784104
 10
332.4453751591
 20
-208.6247704977
 10
332.3571555352
 20
-204.391572423
  0
SPLINE
  5
101
330
1F
100
AcDbEntity
  8
0
  6
Continuous
 62
     7
370
    25
100
AcDbSpline
210
0.0
220
0.0
230
1.0
 70
     8
 71
     3
 72
    12
 73
     8
 74
     0
 42
0.00000001
 43
0.00000001
 40
0.0
 40
0.0
 40
0.0
 40
0.0
 40
0.2143838114265648
 40
0.4287712314957297
 40
0.6430399939872916
 40
0.8572117519199492
 40
1.0
 40
1.0
 40
1.0
 40
1.0
 10
415.2489960152373
 20
-160.5339183397372
 30
0.0
 10
414.462110266935
 20
-160.4785987318523
 30
0.0
 10
412.8883255249767
 20
-160.3679585849081
 30
0.0
 10
410.7836408963378
 20
-159.6508624787251
 30
0.0
 10
409.2109776136211
 20
-158.6324310943729
 30
0.0
 10
408.3153547872518
 20
-157.5249342920861
 30
0.0
 10
408.3174760775173
 20
-156.7850183480004
 30
0.0
 10
408.3183246188541
 20
-156.489043169821
 30
0.0
  0
SPLINE
  5
102
330
1F
100
AcDbEntity
  8
0
  6
Continuous
 62
     7
370
    25
100
AcDbSpline
210
0.0
220
0.0
230
1.0
 70
     8
 71
     3
 72
    13
 73
     9
 74
     0
 42
0.00000001
 43
0.00000001
 40
0.0
 40
0.0
 40
0.0
 40
0.0
 40
0.0024894793184204
 40
0.2176724321187763
 40
0.4331097932735086
 40
0.6481439735556735
 40
0.8627523170349471
 40
1.0
 40
1.0
 40
1.0
 40
1.0
 10
422.2255703096712
 20
-156.320347345692
 30
0.0
 10
422.22706810053
 20
-156.3258225502123
 30
0.0
 10
422.3580303369382
 20
-156.8045576316598
 30
0.0
 10
421.8929798920777
 20
-157.7987288651514
 30
0.0
 10
420.7983244643629
 20
-159.0757335052672
 30
0.0
 10
418.982316792863
 20
-160.0206798723678
 30
0.0
 10
417.0341013978992
 20
-160.488565960954
 30
0.0
 10
415.7499154989898
 20
-160.5211919817374
 30
0.0
 10
415.2489960152373
 20
-160.5339183397372
 30
0.0
  0
LWPOLYLINE
  5
103
330
1F
100
AcDbEntity
  8
0
  6
Continuous
 62
     7
370
    25
100
AcDbPolyline
 90
      121
 70
   128
 43
0.0
 10
342.5394931843
 20
-210.2697108281
 10
342.6274843106
 20
-206.4402194907
 10
342.8912165122
 20
-202.7228169148
 10
343.3299669173
 20
-199.1276922427
 10
343.9425329416
 20
-195.6646994611
 10
344.7272355842
 20
-192.3433303925
 10
345.6819240297
 20
-189.1726886787
 10
346.8039815434
 20
-186.1614648282
 10
348.0903326437
 20
-183.3179123963
 10
349.5374515316
 20
-180.6498253626
 10
351.1413717548
 20
-178.1645167681
 10
352.8976970796
 20
-175.8687986711
 10
354.8016135402
 20
-173.7689634751
 10
356.8479026339
 20
-171.8707666825
 10
359.0309556247
 20
-170.1794111188
 10
361.344788916
 20
-168.699532672
 10
363.7830604516
 20
-167.4351875861
 10
366.3390870986
 20
-166.3898413431
 10
369.0058629658
 20
-165.5663591643
 10
371.7760786058
 20
-164.9669981572
 10
374.6421410501
 20
-164.5934011286
 10
377.5961946208
 20
-164.4465920821
 10
380.6301424624
 20
-164.526973411
 10
383.7356687347
 20
-164.8343247956
 10
386.904261406
 20
-165.3678038072
 10
390.1272355842
 20
-166.125948217
 10
393.395757321
 20
-167.1066800037
 10
396.7008678255
 20
-168.3073110498
 10
400.0335080195
 20
-169.7245505089
 10
403.384543368
 20
-171.3545138262
 10
406.744788916
 20
-173.1927333856
 10
410.105034464
 20
-175.2341707551
 10
413.4560698125
 20
-177.4732304967
 10
416.7887100065
 20
-179.9037755032
 10
420.093820511
 20
-182.5191438198
 10
423.3623422478
 20
-185.3121669038
 10
426.585316426
 20
-188.2751892729
 10
429.7539090973
 20
-191.4000894888
 10
432.8594353696
 20
-194.6783024172
 10
435.8933832112
 20
-198.1008427044
 10
438.8474367819
 20
-201.6583294054
 10
441.7134992262
 20
-205.3410116963
 10
444.4837148662
 20
-209.138795601
 10
447.1504907334
 20
-213.0412716578
 10
449.7065173804
 20
-217.0377434511
 10
452.144788916
 20
-221.1172569294
 10
454.4586222073
 20
-225.2686304299
 10
456.6416751981
 20
-229.4804853264
 10
458.6879642918
 20
-233.7412772174
 10
460.5918807524
 20
-238.0393275685
 10
462.3482060772
 20
-242.3628557224
 10
463.9521263004
 20
-246.7000111889
 10
465.3992451883
 20
-251.0389061265
 10
466.6855962886
 20
-255.3676479256
 10
467.8076538023
 20
-259.6743718059
 10
468.7623422478
 20
-263.9472733366
 10
469.5470448904
 20
-268.1746407916
 10
470.1596109147
 20
-272.3448872506
 10
470.5983613198
 20
-276.4465823578
 10
470.8620935214
 20
-280.4684836521
 10
470.9500846477
 20
-284.3995673816
 10
470.8620935214
 20
-288.2290587191
 10
470.5983613198
 20
-291.9464612949
 10
470.1596109147
 20
-295.5415859671
 10
469.5470448904
 20
-299.0045787487
 10
468.7623422478
 20
-302.3259478173
 10
467.8076538023
 20
-305.4965895311
 10
466.6855962886
 20
-308.5078133815
 10
465.3992451883
 20
-311.3513658134
 10
463.9521263004
 20
-314.0194528471
 10
462.3482060772
 20
-316.5047614416
 10
460.5918807524
 20
-318.8004795387
 10
458.6879642918
 20
-320.9003147347
 10
456.6416751981
 20
-322.7985115272
 10
454.4586222073
 20
-324.4898670909
 10
452.144788916
 20
-325.9697455377
 10
449.7065173804
 20
-327.2340906236
 10
447.1504907334
 20
-328.2794368666
 10
444.4837148662
 20
-329.1029190454
 10
441.7134992262
 20
-329.7022800525
 10
438.8474367819
 20
-330.0758770811
 10
435.8933832112
 20
-330.2226861276
 10
432.8594353696
 20
-330.1423047988
 10
429.7539090973
 20
-329.8349534141
 10
426.585316426
 20
-329.3014744025
 10
423.3623422478
 20
-328.5433299927
 10
420.093820511
 20
-327.562598206
 10
416.7887100065
 20
-326.36196716
 10
413.4560698125
 20
-324.9447277009
 10
410.105034464
 20
-323.3147643835
 10
406.744788916
 20
-321.4765448241
 10
403.384543368
 20
-319.4351074546
 10
400.0335080195
 20
-317.1960477131
 10
396.7008678255
 20
-314.7655027065
 10
393.395757321
 20
-312.1501343899
 10
390.1272355842
 20
-309.357111306
 10
386.904261406
 20
-306.3940889369
 10
383.7356687347
 20
-303.269188721
 10
380.6301424624
 20
-299.9909757925
 10
377.5961946208
 20
-296.5684355053
 10
374.6421410501
 20
-293.0109488043
 10
371.7760786058
 20
-289.3282665134
 10
369.0058629658
 20
-285.5304826087
 10
366.3390870986
 20
-281.6280065519
 10
363.7830604516
 20
-277.6315347587
 10
361.344788916
 20
-273.5520212803
 10
359.0309556247
 20
-269.4006477798
 10
356.8479026339
 20
-265.1887928833
 10
354.8016135402
 20
-260.9280009923
 10
352.8976970796
 20
-256.6299506412
 10
351.1413717548
 20
-252.3064224874
 10
349.5374515316
 20
-247.9692670208
 10
348.0903326437
 20
-243.6303720833
 10
346.8039815434
 20
-239.3016302841
 10
345.6819240297
 20
-234.9949064038
 10
344.7272355842
 20
-230.7220048731
 10
343.9425329416
 20
-226.4946374181
 10
343.3299669173
 20
-222.3243909592
 10
342.8912165122
 20
-218.2226958519
 10
342.6274843106
 20
-214.2007945576
 10
342.5394931843
 20
-210.2697108281
  0
LWPOLYLINE
  5
104
330
1F
100
AcDbEntity
  8
0
  6
Continuous
 62
     7
370
    25
100
AcDbPolyline
 90
       34
 70
   128
 43
0.0
 10
420.1798177585
 20
-141.8959847167
 10
421.0271152412
 20
-142.4883940489
 10
421.6648924153
 20
-143.1626670714
 10
422.070098352
 20
-143.8944338003
 10
422.2280878531
 20
-144.6572462795
 10
422.1331507663
 20
-145.4235344783
 10
421.7887183652
 20
-146.1656027449
 10
421.2072393344
 20
-146.8566307986
 10
420.4097298409
 20
-147.471643085
 10
419.4250139558
 20
-147.9884114579
 10
418.2886818768
 20
-148.3882585616
 10
417.041803606
 20
-148.6567328802
 10
415.7294445726
 20
-148.7841310521
 10
414.3990368516
 20
-148.7658485757
 10
413.0986648443
 20
-148.6025462272
 10
411.8753273832
 20
-148.3001261789
 10
410.7732390714
 20
-147.8695186793
 10
409.832232252
 20
-147.3262870055
 10
409.0863173633
 20
-146.6900649655
 10
408.5624537127
 20
-145.9838472814
 10
408.2795750975
 20
-145.2331585005
 10
408.247905488
 20
-144.4651304711
 10
408.4685895062
 20
-143.7075217273
 10
408.9336510569
 20
-142.9877142231
 10
409.6262816038
 20
-142.331723677
 10
410.5214476743
 20
-141.7632592966
 10
411.5867956344
 20
-141.3028668658
 10
412.783821033
 20
-140.9671861664
 10
414.0692602535
 20
-140.7683495737
 10
415.3966541731
 20
-140.71354356
 10
416.7180273171
 20
-140.8047489576
 10
417.9856218174
 20
-141.0386693658
 10
419.1536235059
 20
-141.4068502914
 10
420.1798177585
 20
-141.8959847167
  0
LWPOLYLINE
  5
105
330
1F
100
AcDbEntity
  8
0
  6
Continuous
 62
     7
370
    25
100
AcDbPolyline
 90
       29
 70
   128
 43
0.0
 10
418.7656041962
 20
-142.7123928285
 10
419.4636912864
 20
-143.217735207
 10
419.9494869418
 20
-143.8000828879
 10
420.1986313397
 20
-144.4302345268
 10
420.1986313397
 20
-145.0765916893
 10
419.9494869418
 20
-145.7067433282
 10
419.4636912864
 20
-146.2890910091
 10
418.7656041962
 20
-146.7944333876
 10
417.8902306728
 20
-147.1974304867
 10
416.8814656
 20
-147.4778743492
 10
415.7898926708
 20
-147.6217023486
 10
414.6702479097
 20
-147.6217023486
 10
413.5786749805
 20
-147.4778743492
 10
412.5699099077
 20
-147.1974304867
 10
411.6945363843
 20
-146.7944333876
 10
410.9964492941
 20
-146.2890910091
 10
410.5106536387
 20
-145.7067433282
 10
410.2615092408
 20
-145.0765916893
 10
410.2615092408
 20
-144.4302345268
 10
410.5106536387
 20
-143.8000828879
 10
410.9964492941
 20
-143.217735207
 10
411.6945363843
 20
-142.7123928285
 10
412.5699099077
 20
-142.3093957293
 10
413.5786749805
 20
-142.0289518669
 10
414.6702479097
 20
-141.8851238674
 10
415.7898926708
 20
-141.8851238674
 10
416.8814656
 20
-142.0289518669
 10
417.8902306728
 20
-142.3093957293
 10
418.7656041962
 20
-142.7123928285
  0
LWPOLYLINE
  5
106
330
1F
100
AcDbEntity
  8
0
  6
Continuous
 62
     7
370
    25
100
AcDbPolyline
 90
       13
 70
   128
 43
0.0
 10
485.2005444651
 20
-80.5910996582
 10
486.5412538868
 20
-79.9077935969
 10
489.268674443
 20
-78.7287104912
 10
492.108958426
 20
-77.7713904747
 10
495.0553689961
 20
-77.0381042049
 10
498.1009175928
 20
-76.5305909556
 10
501.2383805114
 20
-76.2500544922
 10
504.4603160365
 20
-76.1971602162
 10
507.759082093
 20
-76.3720335871
 10
511.1268543722
 20
-76.7742598244
 10
514.5556448904
 20
-77.4028848921
 10
518.0373209352
 20
-78.2564177608
 10
521.3734471653
 20
-79.2694674151
  0
LWPOLYLINE
  5
107
330
1F
100
AcDbEntity
  8
0
  6
Continuous
 62
     7
370
    25
100
AcDbPolyline
 90
       51
 70
   128
 43
0.0
 10
535.3671552801
 20
-85.4846894183
 10
535.9466619741
 20
-85.8084750421
 10
539.5692235159
 20
-87.9506754656
 10
543.1853411393
 20
-90.2927654964
 10
546.786437813
 20
-92.8291899555
 10
550.3639721334
 20
-95.5539327245
 10
553.9094585845
 20
-98.4605310144
 10
557.414487664
 20
-101.5420906953
 10
560.8707458303
 20
-104.791302648
 10
564.2700352208
 20
-108.2004601008
 10
567.6042930966
 20
-111.7614769089
 10
570.8656109665
 20
-115.4659067338
 10
574.0462533447
 20
-119.3049630773
 10
577.138676099
 20
-123.2695401217
 10
580.1355443442
 20
-127.3502343285
 10
583.02974984
 20
-131.5373667418
 10
585.8144278506
 20
-135.8210059461
 10
588.4829734275
 20
-140.1909916224
 10
591.0290570754
 20
-144.6369586476
 10
593.4466397652
 20
-149.1483616791
 10
595.7299872578
 20
-153.7145001673
 10
597.8736837053
 20
-158.3245437361
 10
599.8726444965
 20
-162.9675578717
 10
601.7221283173
 20
-167.6325298573
 10
603.4177483964
 20
-172.3083948949
 10
604.9554829102
 20
-176.9840623491
 10
606.3316845225
 20
-181.6484420534
 10
607.543089035
 20
-186.2904706145
 10
608.5868231301
 20
-190.8991376533
 10
609.4604111858
 20
-195.4635119209
 10
610.1617811478
 20
-199.9727672259
 10
610.6892694439
 20
-204.4162081127
 10
611.0416249303
 20
-208.7832952306
 10
611.2180118587
 20
-213.0636703314
 10
611.2180118587
 20
-217.2471808383
 10
611.0416249303
 20
-221.3239039264
 10
610.6892694439
 20
-225.2841700591
 10
610.1617811478
 20
-229.1185859227
 10
609.4604111858
 20
-232.8180567063
 10
608.5868231301
 20
-236.373807674
 10
607.543089035
 20
-239.7774049773
 10
606.3316845225
 20
-243.0207756594
 10
604.9554829102
 20
-246.0962268035
 10
603.4177483964
 20
-248.9964637791
 10
601.7221283173
 20
-251.7146075447
 10
599.8726444965
 20
-254.2442109634
 10
597.8736837053
 20
-256.5792740955
 10
595.7299872578
 20
-258.7142584292
 10
593.4466397652
 20
-260.6441000176
 10
591.0290570754
 20
-262.3642214895
 10
590.3756887594
 20
-262.778759113
  0
SPLINE
  5
108
330
1F
100
AcDbEntity
  8
0
  6
Continuous
 62
     7
370
    25
100
AcDbSpline
210
0.0
220
0.0
230
1.0
 70
     8
 71
     3
 72
    12
 73
     8
 74
     0
 42
0.00000001
 43
0.00000001
 40
0.0
 40
0.0
 40
0.0
 40
0.0
 40
0.2135290794762837
 40
0.4270780103341378
 40
0.6401250342185395
 40
0.852868018829859
 40
1.0
 40
1.0
 40
1.0
 40
1.0
 10
528.4262562847994
 20
-95.05029595607047
 30
0.0
 10
527.6395531975031
 20
-94.98006397405939
 30
0.0
 10
526.066073884661
 20
-94.83959348070697
 30
0.0
 10
523.955672784007
 20
-94.10720431349122
 30
0.0
 10
522.3729404986003
 20
-93.09968677911715
 30
0.0
 10
521.4614322541709
 20
-92.01384878664823
 30
0.0
 10
521.4545014713491
 20
-91.29816970165419
 30
0.0
 10
521.451667876616
 20
-91.00557007214522
 30
0.0
  0
SPLINE
  5
109
330
1F
100
AcDbEntity
  8
0
  6
Continuous
 62
     7
370
    25
100
AcDbSpline
210
0.0
220
0.0
230
1.0
 70
     8
 71
     3
 72
    12
 73
     8
 74
     0
 42
0.00000001
 43
0.00000001
 40
0.0
 40
0.0
 40
0.0
 40
0.0
 40
0.214716941561346
 40
0.4303936718050962
 40
0.6457790729212252
 40
0.8612520833119204
 40
1.0
 40
1.0
 40
1.0
 40
1.0
 10
535.3651559815164
 20
-91.1797663143514
 30
0.0
 10
535.2893838846212
 20
-91.64183962378604
 30
0.0
 10
535.1375009881622
 20
-92.56805171885667
 30
0.0
 10
533.936381308246
 20
-93.7715832449451
 30
0.0
 10
532.1660481330126
 20
-94.63755722084123
 30
0.0
 10
530.2153778186233
 20
-95.0456449913124
 30
0.0
 10
528.9298112024347
 20
-95.04898692472108
 30
0.0
 10
528.4262562847994
 20
-95.05029595607047
 30
0.0
  0
LWPOLYLINE
  5
10A
330
1F
100
AcDbEntity
  8
0
  6
Continuous
 62
     7
370
    25
100
AcDbPolyline
 90
       34
 70
   128
 43
0.0
 10
523.4174078118
 20
-82.2981925536
 10
522.5701103291
 20
-81.7057832213
 10
521.932333155
 20
-81.0315101989
 10
521.5271272183
 20
-80.2997434699
 10
521.3691377172
 20
-79.5369309908
 10
521.4640748041
 20
-78.7706427919
 10
521.8085072051
 20
-78.0285745253
 10
522.3899862359
 20
-77.3375464717
 10
523.1874957294
 20
-76.7225341852
 10
524.1722116145
 20
-76.2057658124
 10
525.3085436935
 20
-75.8059187087
 10
526.5554219644
 20
-75.5374443901
 10
527.8677809977
 20
-75.4100462181
 10
529.1981887187
 20
-75.4283286946
 10
530.498560726
 20
-75.5916310431
 10
531.7218981871
 20
-75.8940510914
 10
532.8239864989
 20
-76.3246585909
 10
533.7649933183
 20
-76.8678902647
 10
534.5109082071
 20
-77.5041123048
 10
535.0347718576
 20
-78.2103299888
 10
535.3176504728
 20
-78.9610187698
 10
535.3493200824
 20
-79.7290467992
 10
535.1286360641
 20
-80.486655543
 10
534.6635745135
 20
-81.2064630472
 10
533.9709439666
 20
-81.8624535932
 10
533.075777896
 20
-82.4309179736
 10
532.0104299359
 20
-82.8913104045
 10
530.8134045373
 20
-83.2269911038
 10
529.5279653169
 20
-83.4258276966
 10
528.2005713973
 20
-83.4806337102
 10
526.8791982532
 20
-83.3894283126
 10
525.611603753
 20
-83.1555079045
 10
524.4436020644
 20
-82.7873269788
 10
523.4174078118
 20
-82.2981925536
  0
LWPOLYLINE
  5
10B
330
1F
100
AcDbEntity
  8
0
  6
Continuous
 62
     7
370
    25
100
AcDbPolyline
 90
       29
 70
   128
 43
0.0
 10
524.8316213742
 20
-81.4817844418
 10
524.1335342839
 20
-80.9764420633
 10
523.6477386285
 20
-80.3940943823
 10
523.3985942306
 20
-79.7639427434
 10
523.3985942306
 20
-79.117585581
 10
523.6477386285
 20
-78.4874339421
 10
524.1335342839
 20
-77.9050862612
 10
524.8316213742
 20
-77.3997438827
 10
525.7069948975
 20
-76.9967467835
 10
526.7157599703
 20
-76.7163029211
 10
527.8073328996
 20
-76.5724749216
 10
528.9269776606
 20
-76.5724749216
 10
530.0185505899
 20
-76.7163029211
 10
531.0273156627
 20
-76.9967467835
 10
531.902689186
 20
-77.3997438827
 10
532.6007762762
 20
-77.9050862612
 10
533.0865719316
 20
-78.4874339421
 10
533.3357163296
 20
-79.117585581
 10
533.3357163296
 20
-79.7639427434
 10
533.0865719316
 20
-80.3940943823
 10
532.6007762762
 20
-80.9764420633
 10
531.902689186
 20
-81.4817844418
 10
531.0273156627
 20
-81.8847815409
 10
530.0185505899
 20
-82.1652254034
 10
528.9269776606
 20
-82.3090534028
 10
527.8073328996
 20
-82.3090534028
 10
526.7157599703
 20
-82.1652254034
 10
525.7069948975
 20
-81.8847815409
 10
524.8316213742
 20
-81.4817844418
  0
LWPOLYLINE
  5
10C
330
1F
100
AcDbEntity
  8
0
  6
Continuous
 62
     1
370
    25
100
AcDbPolyline
 90
       67
 70
   128
 43
0.0
 10
409.8640248065
 20
-122.9080670257
 10
411.8190690585
 20
-121.8596396751
 10
414.5355196094
 20
-120.6488005435
 10
417.3650672596
 20
-119.6580483887
 10
420.3011034694
 20
-118.8896971583
 10
423.3367709902
 20
-118.345541372
 10
426.4649798798
 20
-118.0268519311
 10
429.6784240616
 20
-117.9343731495
 10
432.9695983876
 20
-118.0683210156
 10
436.3308161677
 20
-118.428382688
 10
439.7542271221
 20
-119.0137172259
 10
443.2318357159
 20
-119.8229575535
 10
446.755519833
 20
-120.8542136525
 10
450.3170497459
 20
-122.1050769764
 10
453.9081073366
 20
-123.572626076
 10
457.5203055235
 20
-125.2534334224
 10
461.1452078505
 20
-127.1435734121
 10
464.7743481902
 20
-129.2386315356
 10
468.3992505172
 20
-131.5337146877
 10
472.0114487041
 20
-134.0234625951
 10
475.6025062947
 20
-136.7020603365
 10
479.1640362077
 20
-139.5632519225
 10
482.6877203248
 20
-142.6003549077
 10
486.1653289186
 20
-145.8062759974
 10
489.588739873
 20
-149.1735276142
 10
492.9499576531
 20
-152.6942453861
 10
496.2411319791
 20
-156.3602065134
 10
499.4545761608
 20
-160.1628489742
 10
502.5827850505
 20
-164.0932915208
 10
505.6184525713
 20
-168.1423544225
 10
508.5544887811
 20
-172.3005809053
 10
511.3840364312
 20
-176.5582592385
 10
514.1004869821
 20
-180.9054454171
 10
516.6974960376
 20
-185.3319863864
 10
519.1689981627
 20
-189.8275437549
 10
521.5092210497
 20
-194.3816179399
 10
523.7126989996
 20
-198.9835726902
 10
525.7742856875
 20
-203.6226599274
 10
527.6891661822
 20
-208.2880448481
 10
529.4528681916
 20
-212.9688312297
 10
531.061272508
 20
-217.6540868787
 10
532.5106226285
 20
-222.3328691636
 10
533.7975335287
 20
-226.9942505714
 10
534.9189995686
 20
-231.6273442298
 10
535.8724015124
 20
-236.2213293341
 10
536.6555126455
 20
-240.7654764191
 10
537.2665039758
 20
-245.2491724187
 10
537.7039485045
 20
-249.6619454531
 10
537.9668245597
 20
-253.9934892866
 10
538.0545181823
 20
-258.2336873977
 10
537.9668245597
 20
-262.3726366073
 10
537.7039485045
 20
-266.4006702077
 10
537.2665039758
 20
-270.3083805399
 10
536.6555126455
 20
-274.0866409652
 10
535.8724015124
 20
-277.7266271815
 10
534.9189995686
 20
-281.2198378321
 10
533.7975335287
 20
-284.5581143618
 10
532.5106226285
 20
-287.7336600711
 10
531.061272508
 20
-290.7390583259
 10
529.4528681916
 20
-293.5672898791
 10
527.6891661822
 20
-296.2117492651
 10
525.7742856875
 20
-298.6662602264
 10
523.7126989996
 20
-300.9250901388
 10
521.5092210497
 20
-302.9829634005
 10
519.1689981627
 20
-304.8350737532
 10
516.6974960376
 20
-306.4770955072
 10
516.0553816921
 20
-306.8568526229
  0
LWPOLYLINE
  5
10D
330
1F
100
AcDbEntity
  8
0
  6
Continuous
 62
     1
370
    25
100
AcDbPolyline
 90
       67
 70
   128
 43
0.0
 10
427.541762847
 20
-112.7029260773
 10
429.4967385882
 20
-111.6545382773
 10
432.2131891391
 20
-110.4436991457
 10
435.0427367892
 20
-109.4529469909
 10
437.978772999
 20
-108.6845957605
 10
441.0144405198
 20
-108.1404399743
 10
444.1426494095
 20
-107.8217505333
 10
447.3560935912
 20
-107.7292717517
 10
450.6472679172
 20
-107.8632196178
 10
454.0084856974
 20
-108.2232812902
 10
457.4318966518
 20
-108.8086158281
 10
460.9095052455
 20
-109.6178561557
 10
464.4331893626
 20
-110.6491122547
 10
467.9947192756
 20
-111.8999755786
 10
471.5857768662
 20
-113.3675246782
 10
475.1979750532
 20
-115.0483320246
 10
478.8228773801
 20
-116.9384720143
 10
482.4520177198
 20
-119.0335301378
 10
486.0769200468
 20
-121.3286132899
 10
489.6891182338
 20
-123.8183611974
 10
493.2801758244
 20
-126.4969589387
 10
496.8417057373
 20
-129.3581505247
 10
500.3653898545
 20
-132.3952535099
 10
503.8429984482
 20
-135.6011745996
 10
507.2664094026
 20
-138.9684262164
 10
510.6276271828
 20
-142.4891439883
 10
513.9188015088
 20
-146.1551051156
 10
517.1322456905
 20
-149.9577475765
 10
520.2604545802
 20
-153.888190123
 10
523.296122101
 20
-157.9372530247
 10
526.2321583108
 20
-162.0954795075
 10
529.0617059609
 20
-166.3531578407
 10
531.7781565118
 20
-170.7003440193
 10
534.3751655673
 20
-175.1268849886
 10
536.8466676924
 20
-179.6224423571
 10
539.1868905794
 20
-184.1765165421
 10
541.3903685292
 20
-188.7784712925
 10
543.4519552172
 20
-193.4175585296
 10
545.3668357119
 20
-198.0829434503
 10
547.1305377213
 20
-202.7637298319
 10
548.7389420377
 20
-207.4489854809
 10
550.1882921581
 20
-212.1277677658
 10
551.4752030583
 20
-216.7891491736
 10
552.5966690983
 20
-221.4222428321
 10
553.550071042
 20
-226.0162279363
 10
554.3331821752
 20
-230.5603750213
 10
554.9441735054
 20
-235.0440710209
 10
555.3816180341
 20
-239.4568440554
 10
555.6444940894
 20
-243.7883878888
 10
555.732187712
 20
-248.0285859999
 10
555.6444940894
 20
-252.1675352095
 10
555.3816180341
 20
-256.19556881
 10
554.9441735054
 20
-260.1032791421
 10
554.3331821752
 20
-263.8815395675
 10
553.550071042
 20
-267.5215257837
 10
552.5966690983
 20
-271.0147364343
 10
551.4752030583
 20
-274.3530129641
 10
550.1882921581
 20
-277.5285586734
 10
548.7389420377
 20
-280.5339569281
 10
547.1305377213
 20
-283.3621884814
 10
545.3668357119
 20
-286.0066478673
 10
543.4519552172
 20
-288.4611588286
 10
541.3903685292
 20
-290.719988741
 10
539.1868905794
 20
-292.7778620028
 10
536.8466676924
 20
-294.6299723554
 10
534.3751655673
 20
-296.2719941094
 10
533.733132253
 20
-296.651704447
  0
ENDSEC
  0
SECTION
  2
OBJECTS
  0
DICTIONARY
  5
C
330
0
100
AcDbDictionary
281
     1
  3
ACAD_GROUP
350
D
  3
ACAD_LAYOUT
350
1A
  3
ACAD_MLINESTYLE
350
17
  3
ACAD_PLOTSETTINGS
350
19
  3
ACAD_PLOTSTYLENAME
350
E
  3
ACAD_SCALELIST
350
47
  3
DWGPROPS
350
10E
  0
DICTIONARY
  5
D
102
{ACAD_REACTORS
330
C
102
}
330
C
100
AcDbDictionary
281
     1
  0
DICTIONARY
  5
1A
102
{ACAD_REACTORS
330
C
102
}
330
C
100
AcDbDictionary
281
     1
  3
Layout1
350
1E
  3
Layout2
350
26
  3
Model
350
22
  0
DICTIONARY
  5
17
102
{ACAD_REACTORS
330
C
102
}
330
C
100
AcDbDictionary
281
     1
  3
Standard
350
18
  0
DICTIONARY
  5
19
102
{ACAD_REACTORS
330
C
102
}
330
C
100
AcDbDictionary
281
     1
  0
ACDBDICTIONARYWDFLT
  5
E
102
{ACAD_REACTORS
330
C
102
}
330
C
100
AcDbDictionary
281
     1
  3
Normal
350
F
100
AcDbDictionaryWithDefault
340
F
  0
DICTIONARY
  5
47
102
{ACAD_REACTORS
330
C
102
}
330
C
100
AcDbDictionary
281
     1
  3
A0
350
48
  3
A1
350
49
  3
A2
350
4A
  3
A3
350
4B
  3
A4
350
4C
  3
A5
350
4D
  3
A6
350
4E
  3
A7
350
4F
  3
A8
350
50
  3
A9
350
51
  3
B0
350
52
  3
B1
350
53
  3
B2
350
54
  3
B3
350
55
  3
B4
350
56
  3
B5
350
57
  3
B6
350
58
  3
B7
350
59
  3
B8
350
5A
  3
B9
350
5B
  3
C0
350
5C
  3
C1
350
5D
  3
C2
350
5E
  3
C3
350
5F
  3
C4
350
60
  3
C5
350
61
  3
C6
350
62
  3
C7
350
63
  3
C8
350
64
  3
C9
350
65
  3
D0
350
66
  3
D1
350
67
  3
D2
350
68
  0
XRECORD
  5
10E
102
{ACAD_REACTORS
330
C
102
}
330
C
100
AcDbXrecord
280
     1
  1
DWGPROPS COOKIE
  2

  3

  4

  6

  7

  8
b.kav
  9

300
=
301
=
302
=
303
=
304
=
305
=
306
=
307
=
308
=
309
=
 40
0.0
 41
2460616.541873334
 42
2460616.541873599
  1

 90
        0
  0
LAYOUT
  5
1E
102
{ACAD_REACTORS
330
1A
102
}
330
1A
100
AcDbPlotSettings
  1

  2
none_device
  4

  6

 40
0.0
 41
0.0
 42
0.0
 43
0.0
 44
0.0
 45
0.0
 46
0.0
 47
0.0
 48
0.0
 49
0.0
140
0.0
141
0.0
142
1.0
143
1.0
 70
   688
 72
     1
 73
     0
 74
     5
  7

 75
    16
147
1.0
148
0.0
149
0.0
100
AcDbLayout
  1
Layout1
 70
     1
 71
     1
 10
0.0
 20
0.0
 11
420.0
 21
297.0
 12
0.0
 22
0.0
 32
0.0
 14
1.0000000000E+20
 24
1.0000000000E+20
 34
1.0000000000E+20
 15
-1.0000000000E+20
 25
-1.0000000000E+20
 35
-1.0000000000E+20
146
0.0
 13
0.0
 23
0.0
 33
0.0
 16
1.0
 26
0.0
 36
0.0
 17
0.0
 27
1.0
 37
0.0
 76
     0
330
1B
  0
LAYOUT
  5
26
102
{ACAD_REACTORS
330
1A
102
}
330
1A
100
AcDbPlotSettings
  1

  2
none_device
  4

  6

 40
0.0
 41
0.0
 42
0.0
 43
0.0
 44
0.0
 45
0.0
 46
0.0
 47
0.0
 48
0.0
 49
0.0
140
0.0
141
0.0
142
1.0
143
1.0
 70
   688
 72
     1
 73
     0
 74
     5
  7

 75
    16
147
1.0
148
0.0
149
0.0
100
AcDbLayout
  1
Layout2
 70
     1
 71
     2
 10
0.0
 20
0.0
 11
0.0
 21
0.0
 12
0.0
 22
0.0
 32
0.0
 14
0.0
 24
0.0
 34
0.0
 15
0.0
 25
0.0
 35
0.0
146
0.0
 13
0.0
 23
0.0
 33
0.0
 16
1.0
 26
0.0
 36
0.0
 17
0.0
 27
1.0
 37
0.0
 76
     0
330
23
  0
LAYOUT
  5
22
102
{ACAD_REACTORS
330
1A
102
}
330
1A
100
AcDbPlotSettings
  1

  2
none_device
  4
Letter_(8.50_x_11.00_Inches)
  6

 40
6.35
 41
6.35
 42
6.35000508
 43
6.35000508
 44
215.9
 45
279.4
 46
0.0
 47
0.0
 48
0.0
 49
0.0
140
0.0
141
0.0
142
1.0
143
1.0
 70
  1712
 72
     1
 73
     0
 74
     0
  7

 75
     0
147
1.0
148
0.0
149
0.0
100
AcDbLayout
  1
Model
 70
     1
 71
     0
 10
0.0
 20
0.0
 11
279.4
 21
215.9
 12
0.0
 22
0.0
 32
0.0
 14
0.0
 24
0.0
 34
0.0
 15
279.4
 25
215.9
 35
0.0
146
0.0
 13
0.0
 23
0.0
 33
0.0
 16
1.0
 26
0.0
 36
0.0
 17
0.0
 27
1.0
 37
0.0
 76
     0
330
1F
331
29
  0
MLINESTYLE
  5
18
102
{ACAD_REACTORS
330
17
102
}
330
17
100
AcDbMlineStyle
  2
Standard
 70
     0
  3

 62
   256
 51
90.0
 52
90.0
 71
     2
 49
0.5
 62
   256
  6
BYLAYER
 49
-0.5
 62
   256
  6
BYLAYER
  0
ACDBPLACEHOLDER
  5
F
102
{ACAD_REACTORS
330
E
102
}
330
E
  0
SCALE
  5
48
102
{ACAD_REACTORS
330
47
102
}
330
47
100
AcDbScale
 70
     0
300
1:1
140
1.0
141
1.0
290
     1
  0
SCALE
  5
49
102
{ACAD_REACTORS
330
47
102
}
330
47
100
AcDbScale
 70
     0
300
1:2
140
1.0
141
2.0
290
     0
  0
SCALE
  5
4A
102
{ACAD_REACTORS
330
47
102
}
330
47
100
AcDbScale
 70
     0
300
1:4
140
1.0
141
4.0
290
     0
  0
SCALE
  5
4B
102
{ACAD_REACTORS
330
47
102
}
330
47
100
AcDbScale
 70
     0
300
1:5
140
1.0
141
5.0
290
     0
  0
SCALE
  5
4C
102
{ACAD_REACTORS
330
47
102
}
330
47
100
AcDbScale
 70
     0
300
1:8
140
1.0
141
8.0
290
     0
  0
SCALE
  5
4D
102
{ACAD_REACTORS
330
47
102
}
330
47
100
AcDbScale
 70
     0
300
1:10
140
1.0
141
10.0
290
     0
  0
SCALE
  5
4E
102
{ACAD_REACTORS
330
47
102
}
330
47
100
AcDbScale
 70
     0
300
1:16
140
1.0
141
16.0
290
     0
  0
SCALE
  5
4F
102
{ACAD_REACTORS
330
47
102
}
330
47
100
AcDbScale
 70
     0
300
1:20
140
1.0
141
20.0
290
     0
  0
SCALE
  5
50
102
{ACAD_REACTORS
330
47
102
}
330
47
100
AcDbScale
 70
     0
300
1:30
140
1.0
141
30.0
290
     0
  0
SCALE
  5
51
102
{ACAD_REACTORS
330
47
102
}
330
47
100
AcDbScale
 70
     0
300
1:40
140
1.0
141
40.0
290
     0
  0
SCALE
  5
52
102
{ACAD_REACTORS
330
47
102
}
330
47
100
AcDbScale
 70
     0
300
1:50
140
1.0
141
50.0
290
     0
  0
SCALE
  5
53
102
{ACAD_REACTORS
330
47
102
}
330
47
100
AcDbScale
 70
     0
300
1:100
140
1.0
141
100.0
290
     0
  0
SCALE
  5
54
102
{ACAD_REACTORS
330
47
102
}
330
47
100
AcDbScale
 70
     0
300
2:1
140
2.0
141
1.0
290
     0
  0
SCALE
  5
55
102
{ACAD_REACTORS
330
47
102
}
330
47
100
AcDbScale
 70
     0
300
4:1
140
4.0
141
1.0
290
     0
  0
SCALE
  5
56
102
{ACAD_REACTORS
330
47
102
}
330
47
100
AcDbScale
 70
     0
300
8:1
140
8.0
141
1.0
290
     0
  0
SCALE
  5
57
102
{ACAD_REACTORS
330
47
102
}
330
47
100
AcDbScale
 70
     0
300
10:1
140
10.0
141
1.0
290
     0
  0
SCALE
  5
58
102
{ACAD_REACTORS
330
47
102
}
330
47
100
AcDbScale
 70
     0
300
100:1
140
100.0
141
1.0
290
     0
  0
SCALE
  5
59
102
{ACAD_REACTORS
330
47
102
}
330
47
100
AcDbScale
 70
     0
300
1/128" = 1'-0"
140
0.0078125
141
12.0
290
     0
  0
SCALE
  5
5A
102
{ACAD_REACTORS
330
47
102
}
330
47
100
AcDbScale
 70
     0
300
1/64" = 1'-0"
140
0.015625
141
12.0
290
     0
  0
SCALE
  5
5B
102
{ACAD_REACTORS
330
47
102
}
330
47
100
AcDbScale
 70
     0
300
1/32" = 1'-0"
140
0.03125
141
12.0
290
     0
  0
SCALE
  5
5C
102
{ACAD_REACTORS
330
47
102
}
330
47
100
AcDbScale
 70
     0
300
1/16" = 1'-0"
140
0.0625
141
12.0
290
     0
  0
SCALE
  5
5D
102
{ACAD_REACTORS
330
47
102
}
330
47
100
AcDbScale
 70
     0
300
3/32" = 1'-0"
140
0.09375
141
12.0
290
     0
  0
SCALE
  5
5E
102
{ACAD_REACTORS
330
47
102
}
330
47
100
AcDbScale
 70
     0
300
1/8" = 1'-0"
140
0.125
141
12.0
290
     0
  0
SCALE
  5
5F
102
{ACAD_REACTORS
330
47
102
}
330
47
100
AcDbScale
 70
     0
300
3/16" = 1'-0"
140
0.1875
141
12.0
290
     0
  0
SCALE
  5
60
102
{ACAD_REACTORS
330
47
102
}
330
47
100
AcDbScale
 70
     0
300
1/4" = 1'-0"
140
0.25
141
12.0
290
     0
  0
SCALE
  5
61
102
{ACAD_REACTORS
330
47
102
}
330
47
100
AcDbScale
 70
     0
300
3/8" = 1'-0"
140
0.375
141
12.0
290
     0
  0
SCALE
  5
62
102
{ACAD_REACTORS
330
47
102
}
330
47
100
AcDbScale
 70
     0
300
1/2" = 1'-0"
140
0.5
141
12.0
290
     0
  0
SCALE
  5
63
102
{ACAD_REACTORS
330
47
102
}
330
47
100
AcDbScale
 70
     0
300
3/4" = 1'-0"
140
0.75
141
12.0
290
     0
  0
SCALE
  5
64
102
{ACAD_REACTORS
330
47
102
}
330
47
100
AcDbScale
 70
     0
300
1" = 1'-0"
140
1.0
141
12.0
290
     0
  0
SCALE
  5
65
102
{ACAD_REACTORS
330
47
102
}
330
47
100
AcDbScale
 70
     0
300
1-1/2" = 1'-0"
140
1.5
141
12.0
290
     0
  0
SCALE
  5
66
102
{ACAD_REACTORS
330
47
102
}
330
47
100
AcDbScale
 70
     0
300
3" = 1'-0"
140
3.0
141
12.0
290
     0
  0
SCALE
  5
67
102
{ACAD_REACTORS
330
47
102
}
330
47
100
AcDbScale
 70
     0
300
6" = 1'-0"
140
6.0
141
12.0
290
     0
  0
SCALE
  5
68
102
{ACAD_REACTORS
330
47
102
}
330
47
100
AcDbScale
 70
     0
300
1'-0" = 1'-0"
140
12.0
141
12.0
290
     0
  0
ENDSEC
  0
EOF
